Home » U » Unknown »

Unknown - Funk Awesome Tabs

Artists:  A B C D E F G H I J K L M N O P Q R S T U V W X Y Z # 

Funk Awesome Tabs

(ver. 1) Click to play this song!
Unknown
(Riff)
until last three notes, be popping with your thumb,
index, and middle finger. sounds good on electric
without an amp, but i suppose you could do it on 
acoustic if you wanted. only use a pick with distortion.

-----------------------------------------------
-----------------------------------------------
------7--------------------------7-10----------
--7h8--8-2s7-----------------7h8------10-12v---
5----------------------------------------------
---------------------------6-------------------

-------------------------------------------
-------------------------------------------
---------------------7-9--10---------------
--7h8-------9----7h8-8-10-0----------------
------10-8-7-------------------------------
5--------------8---------------------------
            
Submit corrections

↑ Back to top | Tablatures and chords for acoustic guitar and electric guitar, ukulele, drums are parodies/interpretations of the original songs. You may use it for private study, scholarship, research or language learning purposes only