Home » U » Unkle »

Unkle - Burn My Shadow Tabs

Artists:  A B C D E F G H I J K L M N O P Q R S T U V W X Y Z # 

Burn My Shadow Tabs

(ver. 1) Click to play this song!
Unkle
[Intro]
 
It sounds closer to the original if you play near the bridge of the guitar and strumming mostly the
E, A and D strings.
 
Am - F - Am (x2) pause until ~ min 1:00
then
Am - F - Am (x1)
 
Pattern is roughly this:
    D   U  D U  D   U  D  U  D U  D   U  D  U  D U
e|-(5)-(5)-x-x-(5)-(5)-x-(5)-x-x-(5)-(5)-x-(5)-x-x----------------------------|
B|-(5)-(5)-x-x-(5)-(5)-x-(5)-x-x-(5)-(5)-x-(5)-x-x----------------------------|
G|-(5)-(5)-x-x-(5)-(5)-x-(5)-x-x-(5)-(5)-x-(5)-x-x----------------------------| x4
D|--7---7--x-x--7---7--x--7--x-x--7---7--x--7--x-x----------------------------|
A|--7---7--x-x--7---7--x--7--x-x--7---7--x--7--x-x----------------------------|
E|--5---5--x-x--5---5--x--5--x-x--5---5--x--5--x-x----------------------------|
 
    D   U  D  U  D U  D   U  D  U  D U  D   D
e|-(1)--x--x-(1)-x-x-(1)--x--x-(1)-x-x-(1)-(1)-------------------------|
B|-(1)--x--x-(1)-x-x-(1)--x--x-(1)-x-x-(1)-(1)-------------------------|
G|-(2)--x--x-(2)-x-x-(2)--x--x-(2)-x-x-(2)-(2)-------------------------| x2
D|--3---x--x--3--x-x--3---x--x--3--x-x--3---3--------------------------|
A|--3---x--x--3--x-x--3---x--x--3--x-x--3---3--------------------------|
E|--1---x--x--1--x-x--1---x--x--1--x-x--1---1--------------------------|
 
    D   U  D  U  D U  D   U  D  U  D U  D   U  D U
e|-(5)-(5)-x-(5)-x-x-(5)-(5)-x-(5)-x-x-(5)-(5)-x-x--------------|
B|-(5)-(5)-x-(5)-x-x-(5)-(5)-x-(5)-x-x-(5)-(5)-x-x--------------|
G|-(5)-(5)-x-(5)-x-x-(5)-(5)-x-(5)-x-x-(5)-(5)-x-x--------------|
D|--7---7--x--7--x-x--7---7--x--7--x-x--7---7--x-x--------------|
A|--7---7--x--7--x-x--7---7--x--7--x-x--7---7--x-x--------------|
E|--5---5--x--5--x-x--5---5--x--5--x-x--5---5--x-x--------------|
 
    D   U  D  U  D U  D
e|-(5)-(5)-x-(5)-x-x-(5)-------------|
B|-(5)-(5)-x-(5)-x-x-(5)-------------|
G|-(5)-(5)-x-(5)-x-x-(5)-------------|
D|--7---7--x--7--x-x--7--------------|
A|--7---7--x--7--x-x--7--------------|
E|--5---5--x--5--x-x--5--------------|
 
 
 
[Verse 1 and Chorus]
 
The main riff goes like this:
    Am                   G                   F
e|---------------------------------------------------------------------------|
B|---------------------------------------------------------------------------|
G|--5---5---5---5---5----4---4---4---4---4---2---2---2---2---2---------------|
D|----7---7---7---7---7----5---5---5---5---5---3---3---3---3---3-------------|
A|---------------------------------------------------------------------------|
E|---------------------------------------------------------------------------|
 
    Am                   G
e|---------------------------------------------------------------------------|
B|---------------------------------------------------------------------------|
G|--5---5---5---5---5----4---4---4---4---4-----------------------------------|
D|----7---7---7---7---7----5---5---5---5---5---------------------------------|
A|---------------------------------------------------------------------------|
E|---------------------------------------------------------------------------|
 
As you can tell the whole riff fits within the chords of the progression so you can try to play both the
chords and the riff at the same time
 
 
[Verse 2]
 
This is the other riff at around 2:47 in the song
 
e|---------------------------------------------------------------------------|
B|---------------------------------------------------------------------------|
G|--11---11---11---11---11-12------------------------------------------------|
D|--x--x----x----x----x----x-------------------------------------------------|
A|--9--9----9----9----9----10------------------------------------------------|
E|---------------------------------------------------------------------------|
 
 
[Outro]
 
Outro is the same as Verse 1 and Chorus using the main riff and chord progression
 
    Am                   G                   F
e|---------------------------------------------------------------------------|
B|---------------------------------------------------------------------------|
G|--5---5---5---5---5----4---4---4---4---4---2---2---2---2---2---------------|
D|----7---7---7---7---7----5---5---5---5---5---3---3---3---3---3-------------|
A|---------------------------------------------------------------------------|
E|---------------------------------------------------------------------------|
 
    Am                   G
e|---------------------------------------------------------------------------|
B|---------------------------------------------------------------------------|
G|--5---5---5---5---5----4---4---4---4---4-----------------------------------|
D|----7---7---7---7---7----5---5---5---5---5---------------------------------|
A|---------------------------------------------------------------------------|
E|---------------------------------------------------------------------------|
            
Submit corrections

↑ Back to top | Tablatures and chords for acoustic guitar and electric guitar, ukulele, drums are parodies/interpretations of the original songs. You may use it for private study, scholarship, research or language learning purposes only