» » »

Unicorns - Innoculate The Innocuous Tabs

Artists:  A B C D E F G H I J K L M N O P Q R S T U V W X Y Z # 

Innoculate The Innocuous Tabs

(ver. 1) Click to play this song!
Unicorns
 Rating:
3.3/5 (6 votes)

 Innoculate The Innocuous lessons Tabs too difficult? Try these video lessons and learn fast
 
                Tuning: 434kh!!!!!! standard a half step up, high to low FCG#D#A#F
To get this tuning, I tuned the 11th fret of the high E to match the 11th fret note
during the intro. Then, I adjusted the pitch of an electronic tuner until the retuned open
E was shown as in tune. I tuned the rest of the strings to that. The half step up is 
unnecessary, but the pitch change is. In standard tuning, this tab is about 3/4 of a
up.

 Chords used
     G#m C#m F#m B   E
F |--------------2---0--|
C |------5-------4---0--|
G#|--4---6---2---4---1--|
D#|--6---6---4---4---2--|
A#|--6---4---4---2---2--|
F |--4-------2-------0--|

Intro
Guitar 1: F |--11-11-x-x-11-11-x-x-11-11-x-x-11-11--|
          C |--12-12-x-x-x--x--x-x-12-12-x-x-12-12--|
          G#|--13-13-x-x-x--x--x-x-13-13-x-x-13-13--|
          D#|---------------------------------------|
          A#|---------------------------------------|
          F |---------------------------------------|
Guitar 2:      G#m /               G#m /     /  /

Guitar 1: F |--11-11-x-x-11-11-x-x-------x-x-x--x---|
          C |--12-12-x-x-x--x--x-x-11-11-x-x-11-11--|
          G#|--13-13-x-x-x--x--x-x-11-11-x-x-x--x---|
          D#|----------------------13-13-x-x-x--x---|
          A#|---------------------------------------|
          F |---------------------------------------|
Guitar 2:      C#m /               F#m /     /  /

Guitar 1 intro fill      End on
F |--9-11-11---9-11-11--|--9-11-12-11\--|
C |---------------------|---------------|
G#|---------------------|---------------|
D#|---------------------|---------------|
A#|--repeat as needed---|---------------|
F |---------------------|---------------|

Preverse 1
Small doses daily
Absorbed and collected
In the glands and fatty tissues
Over time, over time
F |--11-11-11-11-11-11--------|
C |--12----------12----11-11--|
G#|--13----------13----11-----|
D#|--------------------13-----|
A#|---------------------------|
F |---------------------------| repeat as needed

Verse 1
F |----------------------------------|
C |--11------6---6---4---4---4--4----|
G#|--11--3-------3---4---4---4--4----|
D#|--13----3---3---3-4-4-4-4-4--4-4--|
A#|----------------------------------|
F |----------------------------------|

F |------6\-----------------|
C |-(6)-------6---6---4~----|
G#|--3-3------3---3---4~----|
D#|--3------3---3---3-4~----|
A#|-------------------------|
F |-------------------------|

Somewhere in the a**hole of my eye
F |--6---6--------------------------|
C |----------6---6---4--4--4-4-4----|
G#|--3---------------4--4--4-6-4-3--|
D#|---(3)-(3)-(3)--3-4--4--4--------|
A#|---------------------------------|
F |---------------------------------|

There's a muscle which relaxes when you cry
F |-(6)-6---------------------|
C |--6--6--6--6--4--4--4-4-4--|
G#|--3-----3--3--4--4--4-6-4--|
D#|--------------4--4---------|
A#|---------------------------|
F |---------------------------|

Somewhere in the eye of my brain
F |---------------------------------|
C |------6---6---6--4---4------4----|
G#|--3---3---3---3--4---4--4--------|
D#|----3---3---3----4-4------4---4--|
A#|---------------------------------|
F |---------------------------------|

There's a muscle that makes me go on
F |------6-------------------|
C |--6---6---6--6--4------4--|
G#|--3---3---3--3--4---(4)---|
D#|----3---3-------4---------|
A#|--------------------------|
F |--------------------------|

Interlude 3 (Synth tabbed for guitar)
F |--/16--/11--9-11----|---------------------|
C |-----------------9--|--/11-9--------------|
G#|-Repeat as needed.--|---------8--6-8---8--|
D#|-On repetitions,----|----------------6-8--|
A#|-don't slide the----|------------------6--|
F |-first two notes.---|-End on--------------|

Interlude 2
F |-------------------------------------------------------------------|
C |-------------------------------------------------------------------|
G#|--8---8--8--8--8--8---8--8--8--8--6---6--6--6--6--4---4--4--4--4---|
D#|--8---8--8--8--8--8---8--8--8--8--6---6--6--6--6--4---4--4--4--4---|
A#|--4/6-6--6--6--6--4/6-6--6--6--6--2/4-4--4--4--4--1/2-2--2--2--2---|
F |-----(6)(6)(6)(6)----(6)(6)(6)(6)----(4)(4)(4)(4)----(2)(2)(2)(2)--|
Notes in (parenthesis) are only sometimes added to the progression

Preverse 2
Storage cells for hidden substance
But no flavors or aromas
Go on, on
F |--6-6-6-6-6-6-6-6-6-6-6-6-6-6-6-6-6-6-6-6-6-6-7-9-14--|
C |--------------4---4-------7---4-----------7---8-8-11--|
G#|----------8---3---3-------8---3---8-------8---8-8-11--|
D#|------------------------------------------------------|
A#|------------------------------------------------------|
F |------------------------------------------------------|

Verse 2
F |-------------------------------|
C |------6---6---4---4-4-4---4-4--|
G#|--3---3-3-3-3-4---4---4-6-8-4--|
D#|--3-3-3---3---4-4-4-----4------|
A#|-------------------------------|
F |-------------------------------|

F |-----6\--4\------------|
C |-----------6-6---4~----|
G#|--3------3---3---4~----|
D#|--3----3-------3-4~----|
A#|-----------------------|
F |-----------------------|

Reflect on your absence
F |--6---6\--------------------------|
C |--6---6\--6--6---4---4-----4-4-4--|
G#|--3---3---3--3---4---4---4-6-8-4--|
D#|--3-3-----3--3-3-4-4-4-4-4-4---4--|
A#|----------------------------------|
F |----------------------------------|

Genuflect in my presence
F |-----(6)--4\-----------------------|
C |------6---4\--6---4---4---4---4----|
G#|--3---3---3---3---4---4---4---4----|
D#|--3-3-3-3-----3-3-4-4-4-4---4-4-4--|
A#|-----------------------------------|
F |-----------------------------------|

Remove your absess
F |--6---6----------------------------|
C |--6---6---6---6-------4---4-4-4-4--|
G#|--3---3---3---3---4---4---4-6-8-4--|
D#|--3-3-3-3-3-3---3-4-4-4-4----------|
A#|-----------------------------------|
F |-----------------------------------|

They say it's cancer
F |-----(6)--4----------------------|
C |------6---6---6---4---4--4--4----|
G#|--3---3---3---3---4---4--4--4----|
D#|--3-3---3---3-3-3---4----4--4-4--|
A#|---------------------------------|
F |---------------------------------|

F |------6---------------------------|
C |------6---6---6---4--4-----4-4----|
G#|--3---3---3---3---4--4(4)4-6-4-3--|
D#|--3-3-3-3-3-3-3-3-4--4-4-4-4-4----|
A#|----------------------------------|
F |----------------------------------|

F |------6-----------------------|
C |--6-------6---6-6----4-----4--|
G#|--3---3---3---3-3-4-----4--4--|
D#|--3-3-3-3--(3)3---4-----4-----|
A#|------------------------------|
F |------------------------------|

Interlude 3
Flavorful, beautiful, flavorful, beautiful
Synth for guitar
        F |------------------------------9------|
        C |--11---9-7-9-11-----11---9-11--------|
        G#|----------------8----------------11--|
        D#|-------------------------------------|
        A#|-------------------------------------|
        F |-------------------------------------|
Guitar 1:    B / // // ///      E / // // ///

Guitar 2 fills, variate heavily on
F |--------------------6------|
C |----------------------4-7--|
G#|------4-----4--------------|
D#|--------------4------------|
A#|--4h6---6-------4----------|
F |---------------------------|

Interlude 4                      End. 1 End. 2
F |-----------------------------|--6~--|------|
C |-----------------------------|--4~--|------|
G#|--11---10-11-10\--8---6-8-6--|------|--8~--|
D#|-(9)--(9)--------(6)-(4)-----|------|------|
A#|-(10)------------(7)---------|------|------|
F |-----------------------------|------|------|
Notes in (parenthesis) are only sometimes added to the progression

Outro
Bananas help me unwind
F |--(11)-9--7---------------------|
C |-------------9--11----11----12--|
G#|--------------------------------|
D#|-------------------11----11-----|
A#|--------------------------------|
F |--------------------------------|

Watermelon makes it awesome
F |--11--9--7-------------------------|
C |------------9--11----11----11\9-9--|
G#|-----------------------------------|
D#|------------------11----11---------|
A#|-----------------------------------|
F |-----------------------------------|

Key: Notes shown as x-es are dead notes
Notes followed by \ is a slide down from that note to whatever sounds good
Notes followed by / is a slide up from that note to whatever sounds good
Notes followed by ~ are vibrato
Notes in (parenthesis) are hard to hear notes except where noted
            
Submit corrections


        Innoculate The Innocuous lessons Hard to play? Try these video lessons and learn fast Innoculate The Innocuous lessons
        
↑ Back to top | Tablatures and chords for acoustic guitar and electric guitar, ukulele, drums are parodies/interpretations of the original songs. You may use it for private study, scholarship, research or language learning purposes only