» » »

Underground Heroes - Chasing A Buzz Bass

Artists:  A B C D E F G H I J K L M N O P Q R S T U V W X Y Z # 

Chasing A Buzz Bass

(ver. 1) Click to play this song!
Underground Heroes
 Rating:
4.3/5 (6 votes)
                -------------------------------------------------------------------------------
-------------------------------------------------------------------------------


Intro/Verses

G|-----------------------------------|
D|-----------------------------55-55-|
A|-5---3---2-------5---3---2---------|X2
E|-------------0---------------------|

Bridge

G|--------------------------------------|
D|--------------5-----------------------|
A|-555555555555---3-2-55555555----------|
E|-----------------------------55555555-|

Thats All I Know At The Moment, But I Will Be Updating The Song When I Do Find Out!

But For Now, Enjoy!
            
Submit corrections

↑ Back to top | Tablatures and chords for acoustic guitar and electric guitar, ukulele, drums are parodies/interpretations of the original songs. You may use it for private study, scholarship, research or language learning purposes only