Home » U » Umphreys Mcgee »

Umphreys Mcgee - 1348 Tabs

Artists:  A B C D E F G H I J K L M N O P Q R S T U V W X Y Z # 

1348 Tabs

(ver. 2) Click to play this song!
Umphreys Mcgee
Tabbed by Vin Giardelli


Intro (Chords before this are G | E )

E||----------9----------9----------9----------9--|
B||------11---------11---------11---------11-----|
G||--12---------12---------12---------12---------|
D||----------------------------------------------|
A||----------------------------------------------|
E||----------------------------------------------|

----------9--12-----12--9----------------|
------11-------------------11------------|
--12---------------------------12--------|
-----------------------------------------|
-----------------------------------------|
-----------------------------------------|

----------9----------9----------9----------9--|
------11---------11---------11---------11-----|
--12---------12---------12---------12---------|
----------------------------------------------|
----------------------------------------------|
----------------------------------------------|

----------9--12-----12--9-------------9--7----------------|
------11-------------------11-----------------11--8-------|
--12---------------------------12--------------------9----|
----------------------------------------------------------|
----------------------------------------------------------|
----------------------------------------------------------|

--------------------------------------|-----------------------------------|
--------4--------4--------4--------4--|--------4--7-----7--4--------------|
-----5--------5--------5--------5-----|-----5-----------------5-----------|
--7--------7--------7--------7--------|--7-----------------------4--------|
--------------------------------------|-----------------------------------|
--------------------------------------|-----------------------------------|


--------------------------------------|-------------------------------------------------------|
--------4--------4--------4--------4--|--------4--7-----7--4-----------4--2-------------------|
-----5--------5--------5--------5-----|-----5-----------------5----------------5--2-----------|
--7--------7--------7--------7--------|--7-----------------------4-------------------4--------|
--------------------------------------|-------------------------------------------------------|
--------------------------------------|-------------------------------------------------------|


Intro Walk-down

-------------------------------------------------------|
-------------------------------------------------------|
-------------------------------------------------------| x4 go octave higher on 4
--11--9-------------------------11--9------------------|
------------11-----9-------------------11--9-----------|
----------------------11--9-------------------11--9----|

-------------------------------------------------------|
-------------------------------------------------------|
--10--8-------------------------10--8------------------|
------------11-----9-------------------11--9-----------| Jake harmony on 2
----------------------11--9-------------------11--9----|
-------------------------------------------------------|

Pre-verse Riff

----------------------------------------------------------------------------|
----------------------------------------------------------------------------|
----------------------------------------------------------------------------|
----------------------------------------------------------------------------|
-----------------4-----------------2-------------------------------------4--|
--2-----4--2--4--------2--4--2--4----------1-----2-----4--2-----4--2--4-----|

--------------------------------|
--------------------------------|
--------------------------------|
--------------------------------| x2
-----------------2--------------|
-----2--4--2--4--------1-----2--|

On the 2nd time, instead of hitting the F (right after the B), hit F# and then the 
chords before the verse


Chords before the verse (F | F# | G#)

---------------|
---------------|
---------------|
-3-----4-----6-|
-3-----4-----6-|
-1-----2-----4-|

-------------------------------------------------|
-------------------------------------------------|
--5------------3------------6------------3-------|
--6------------4------------6------------4-------| x8
--6------------4------------8------------4-------|
-------------------------------------------------|

The last chord of the verse leading back to the Pre-verse Riff is E


Jake's part during the verse

---------------------------------|
--9-----6--7-----4--6-----2--4---|
---------------------------------|
---------------------------------|
---------------------------------|
---------------------------------|

Bridge ( G | E )

----12--13----12--10----10--9----10--9---------|
-----------------------------------------------|
-----------------------------------------------|
-----------------------------------------------|
-----------------------------------------------|
-----------------------------------------------|


----12--13----12--10----16--17----16--14---------|
-------------------------------------------------|
-------------------------------------------------|
-------------------------------------------------|
-------------------------------------------------|
-------------------------------------------------|


Outro after Solo

-------------------------------------------------------------------------------------------------------|
-----------------------------------------------------------------------------9--11^12------------------|
--------------------------------------------------------------4--6--8-----8---------------4--6--4------|
--4--6--4-----4--6--8-----4--6--------4--6--4-----4--6--8---------------------------------4--6--4------|
--------------------------------4----------------------------------------------------------------------|
-------------------------------------------------------------------------------------------------------|            
Submit corrections

↑ Back to top | Tablatures and chords for acoustic guitar and electric guitar, ukulele, drums are parodies/interpretations of the original songs. You may use it for private study, scholarship, research or language learning purposes only