Home » U » Ulli Boegershausen »

Ulli Boegershausen - Hit The Road Jack Tabs

Artists:  A B C D E F G H I J K L M N O P Q R S T U V W X Y Z # 

Hit The Road Jack Tabs

(ver. 3) Click to play this song!
Ulli Boegershausen
Hit the Road Jack - Ulli Bögershausen

Tuning: (standard) EADGBE

This is my first tab!!! You kinda have to
watch the video to 
know whats happening in here

|---0----------------------|-----0--0---5--5---8--8------|
|-----1-3-------1-1-3-1-3-1|-----1--1---5--5--10-10--10--|
|-----------2--------------|-----2--2---5--5---9--9---9--|
|--------------------------|--------------------------7--|
|-------0------------------|-----0-------------8---------|
|-----------3---1-------0--|------------3-------------0--|

|---0----------------------|--------------------------------------------|
|-----1-3-------1-1-3-1-3-1|--------------------------------------------|
|-----------2--------------|-2p0h2--------------2---------1-------------|
|--------------------------|----------------2h3-------1h2---------------|
|-------0------------------|-----0---------------------------0--X-------|
|-----------3---1-------0--|--------0h3--0h1--------0-----------X---0h3-|

|------------------------|-0------------------------|
|------------------------|---1-3--------1-1-3-1-3-1-|
|-------------2---------1|----------2---------------|
|---------2h3-------1h2--|--------------------------|
|-X----------------------|-----0-X------------------|
|-X---0p1---------0------|-------X--3---1-------0---|

|-0--0---5--5---8--8--|    
|-1--1---5--5--10-10--|    go to the updated version of this tabs  
|-2--2---5--5---9--9--|    the intro version
|---------------------|      
|-0-------------8-----|
|--------3------------|
            
Submit corrections

↑ Back to top | Tablatures and chords for acoustic guitar and electric guitar, ukulele, drums are parodies/interpretations of the original songs. You may use it for private study, scholarship, research or language learning purposes only