Home » U » Uk Subs »

Uk Subs - Brand New Age Tabs

Artists:  A B C D E F G H I J K L M N O P Q R S T U V W X Y Z # 

Brand New Age Tabs

(ver. 1) Click to play this song!
Uk Subs
--------------------------------------------------------------
Artist    :  UK Subs
Song      :  Brand New Age
Album     :  Original Punks Original Hits
--------------------------------------------------------------
--------------------------------------------------------------

Tuning: standard



[intro]
e||-----------------------------------||
B||-----------------------------------||
G||-----------------------------------|| x2
D||--7-7-7-7-7-7-7-7-3-3-3-7-7-7-7-7--||
A||--7-7-7-7-7-7-7-7-3-3-3-7-7-7-7-7--||
E||--5-5-5-5-5-5-5-5-1-1-1-5-5-5-5-5--||


[verse one]
e||-----------------------------------||
B||-----------------------------------||
G||-----------------------------------|| x6
D||--7-7-7-7-7-7-7-7-3-3-3-7-7-7-7-7--||
A||--7-7-7-7-7-7-7-7-3-3-3-7-7-7-7-7--||
E||--5-5-5-5-5-5-5-5-1-1-1-5-5-5-5-5--||

e||-------------------------------------------------------------------||
B||-------------------------------------------------------------------||
G||-------------------------------------------------------------------||  x2
D||--9-9-9-9-9-9-9-9-9-9-9-9-9-9-9-9-7-7-7-7-7-7-7-7-3-3-3-7-7-7-7-7--||
A||--9-9-9-9-9-9-9-9-9-9-9-9-9-9-9-9-7-7-7-7-7-7-7-7-3-3-3-7-7-7-7-7--||
E||--7-7-7-7-7-7-7-7-7-7-7-7-7-7-7-7-5-5-5-5-5-5-5-5-1-1-1-5-5-5-5-5--||

e|-------------------------------------------------------------------|
B|-------------------------------------------------------------------|
G|----------------------------------6-6-6-6-6-6-6-6-6-6-6-6-6-6-6-6--|  x1
D|--9-9-9-9-9-9-9-9-9-9-9-9-9-9-9-9-6-6-6-6-6-6-6-6-6-6-6-6-6-6-6-6--|
A|--9-9-9-9-9-9-9-9-9-9-9-9-9-9-9-9-4-4-4-4-4-4-4-4-4-4-4-4-4-4-4-4--|
E|--7-7-7-7-7-7-7-7-7-7-7-7-7-7-7-7----------------------------------|


[chorus]
e||---------------------||
B||---------------------||
G||--9-9-6-6-6----------||  x4
D||--9-9-6-6-6-7-9-7-9--||
A||--7-7-4-4-4-7-9-7-9--||
E||------------5-7-5-7--||


[verse two]
e||-----------------------------------||
B||-----------------------------------||
G||-----------------------------------|| x6
D||--7-7-7-7-7-7-7-7-3-3-3-7-7-7-7-7--||
A||--7-7-7-7-7-7-7-7-3-3-3-7-7-7-7-7--||
E||--5-5-5-5-5-5-5-5-1-1-1-5-5-5-5-5--||

e||-------------------------------------------------------------------||
B||-------------------------------------------------------------------||
G||-------------------------------------------------------------------||  x2
D||--9-9-9-9-9-9-9-9-9-9-9-9-9-9-9-9-7-7-7-7-7-7-7-7-3-3-3-7-7-7-7-7--||
A||--9-9-9-9-9-9-9-9-9-9-9-9-9-9-9-9-7-7-7-7-7-7-7-7-3-3-3-7-7-7-7-7--||
E||--7-7-7-7-7-7-7-7-7-7-7-7-7-7-7-7-5-5-5-5-5-5-5-5-1-1-1-5-5-5-5-5--||

e|-------------------------------------------------------------------|
B|-------------------------------------------------------------------|
G|----------------------------------6-6-6-6-6-6-6-6-6-6-6-6-6-6-6-6--|  x1
D|--9-9-9-9-9-9-9-9-9-9-9-9-9-9-9-9-6-6-6-6-6-6-6-6-6-6-6-6-6-6-6-6--|
A|--9-9-9-9-9-9-9-9-9-9-9-9-9-9-9-9-4-4-4-4-4-4-4-4-4-4-4-4-4-4-4-4--|
E|--7-7-7-7-7-7-7-7-7-7-7-7-7-7-7-7----------------------------------|


[chorus]
e||---------------------||
B||---------------------||
G||--9-9-6-6-6----------||  x4
D||--9-9-6-6-6-7-9-7-9--||
A||--7-7-4-4-4-7-9-7-9--||
E||------------5-7-5-7--||


[outro]
e||-----------------------------------||
B||-----------------------------------||
G||-----------------------------------|| x4
D||--7-7-7-7-7-7-7-7-3-3-3-7-7-7-7-7--||
A||--7-7-7-7-7-7-7-7-3-3-3-7-7-7-7-7--||
E||--5-5-5-5-5-5-5-5-1-1-1-5-5-5-5-5--||
            
Submit corrections

↑ Back to top | Tablatures and chords for acoustic guitar and electric guitar, ukulele, drums are parodies/interpretations of the original songs. You may use it for private study, scholarship, research or language learning purposes only