Home » U » Uk Subs »

Uk Subs - Tomorrows Girls Bass

Artists:  A B C D E F G H I J K L M N O P Q R S T U V W X Y Z # 

Tomorrows Girls Bass

(ver. 1) Click to play this song!
Uk Subs
Verse

|------------------------------|
|-------------4-5-6-7----------|
|-7-7-----5-7---------5-7-5----|
|-----5-7----------------------| Repeat until Chorus

Chorus

|------------------------------------------------|
|-----------7-7-7-5-4----------------------------|
|-7-7-7-7-7-----------7-5-5-5-5-5-7-7-7-----5----|
|---------------------------------------5-7------|



DancingDog :)
            
Submit corrections

↑ Back to top | Tablatures and chords for acoustic guitar and electric guitar, ukulele, drums are parodies/interpretations of the original songs. You may use it for private study, scholarship, research or language learning purposes only