» » »

Ub40 - One In Ten Bass

Artists:  A B C D E F G H I J K L M N O P Q R S T U V W X Y Z # 

One In Ten Bass

(ver. 1) Click to play this song!
Ub40
 Rating:
4.2/5 (5 votes)
                    
    Title - One In Ten
    Artist - UB40
    Album - Present Arms


  G|------------------------------------------------------------|
  D|--------------------3------------------------------------3--|
  A|------1---1---1---5---5--3--1---1---1---1---5-3--1-3--5-----|
  E|---3----3---3---3-------------3---3---3---3-----------------|

  G|-------------------------------------------------------------|
  D|-------------------------------------------------------------|
  A|-----1----1----1---5--3--1--0-----1---1---1--------1---1--0--|
  E|---3----3----3---3--------------3---3---3---3----3---3-------|

    Repeat thro'out song.
            
Submit corrections

↑ Back to top | Tablatures and chords for acoustic guitar and electric guitar, ukulele, drums are parodies/interpretations of the original songs. You may use it for private study, scholarship, research or language learning purposes only