Home » U » Ub40 »

Ub40 - Guns In The Ghetto Bass

Artists:  A B C D E F G H I J K L M N O P Q R S T U V W X Y Z # 

Guns In The Ghetto Bass

(ver. 1) Click to play this song!
Ub40
 Rating:
4/5 (4 votes)
                Here is the title track to UB40`S 1997
album:Guns In The Ghetto.

Intro:
G:----:----:-----:----:----:----:----:-----:
D:----:----:-44--:44--:----:----:66--:-66--:
A:44--:44--:-----:----:44--:44--:----:-----:
E:----:----:(22)-:----:----:----:----:(44)-:

Verses:(daddy don`t go..)                      Into Chorus:
G::----:----:-----:----:----:----:----:-----:: G:----:----:
D::----:----:-44--:44--:----:----:66--:-66--:: D:----:----:
A::44--:44--:-----:----:44--:44--:----:-----:: A:44--:44--:
E::----:----:(2)--:----:----:----:----:(4)--:: E:----:----:

Chorus`:(there saying they..)
G::-----:----:----:----:-----:-----:----:----:-----:-----:
D::-44--:44--:----:----:-66--:-66--:----:----:-44--:-44--:
A::-----:----:44--:44--:-----:-----:44--:44--:-----:-----:
E::(2)--:----:----:----:(4)--:(44)-:----:----:(22)-:(2)--:

G:----:----:-----:----::
D:----:----:-66--:66--::
A:44--:44--:-----:----::
E:----:----:(4)--:(4)-::

Just listen to the track to find the changes,
For the notes in () vary the octaves when and where needed!
            
Submit corrections

↑ Back to top | Tablatures and chords for acoustic guitar and electric guitar, ukulele, drums are parodies/interpretations of the original songs. You may use it for private study, scholarship, research or language learning purposes only