» » »

Ub40 - Bring Me Your Cup Bass

Artists:  A B C D E F G H I J K L M N O P Q R S T U V W X Y Z # 

Bring Me Your Cup Bass

(ver. 1) Click to play this song!
Ub40
 Rating:
4.3/5 (6 votes)
                 Title - Bring Me Your Cup
 Artist - UB40
 Album - Promises and Lies

    
  play close to neck  repeat thro'out
G|---------------------------------------|
D|-----10-10--10--7-7--7-7-7--7----------|
A|----8--8------7--7----5-5--------------|
E|------------------------------666-888--|

G|---------------------------------------|
D|-----10-10--10--7-7--7-7-7--7----------|
A|----8--8------7--7----5-5--------------|
E|-------------------------------66--88--|
            
Submit corrections

↑ Back to top | Tablatures and chords for acoustic guitar and electric guitar, ukulele, drums are parodies/interpretations of the original songs. You may use it for private study, scholarship, research or language learning purposes only