» » »

U2 - Walk On Tabs

Artists:  A B C D E F G H I J K L M N O P Q R S T U V W X Y Z # 

Walk On Tabs

(ver. 2) Click to play this song!
U2
 Rating:
4/5 (4 votes)

 Walk On lessons Tabs too difficult? Try these video lessons and learn fast
 
                Walk On - U2 - All That You Can't Leave Behind


Intro:
D           C       
And love is not the easy thing
G
the only baggage that you can bring... (ohhh)
D
Love is not (ohhh) the easy thing
C
The only baggage you can bring
G			    -D  A  G  Em (repeat)-
is all that you can't leave behind

Verse 1:
D               A
And if the darkness 
            G          Em
is to keep us apart,
D              A
and if the daylight
              G                    Em
feels like it's a long way off,
D        A		             G
and if your glass heart should crack,
                 Em	           D
and for a second you turn back
     A           E
Oh no, be strong!

Chorus:

Oh!  Oh!
       D             A
Walk on!  Walk On!
                 G
What you got, they can't steal it.
      Em
No, they can't even feel it.
       D               A
Walk On!  Walk On!
G                 E
Stay safe tonight.

Verse 2:

You're packing a suitcase for a place
none of us has been
a place that has to be believed, to be seen.
You could have flown away
a singing bird in an open cage,
who will only fly,
only fly, for freedom.

Chorus:

Bridge:
          D
And I know it aches
              A
how your heart, it breaks;
            E
you can only take so much.

Solo:
Walk..................         On..................!

e------------------------------------------------------------------------
A--7/8--8/10--10/12---12------15--14--12--14--12h14h12--10---
G------------------------------------------------------------------------
                                     Walk.......  On...!
e------------------------------------------------------------------------
A--8h10p8--7---5---7/8--8/10--10/12---12--15-14-----------------
G--------------------------------------------------------14--11-11--14-

e----------------------------------------------------------------------
A---14--14/15\14--12--10---14/15\14--12--14--14/15\14--12--10--
G------------------------------------------------------------------------

e-----------------------------------
A--7--5--5h7p5--3--5--7--5--3-----
G--------------------------------
  D        A
Home..........
              G
hard to know what it is

if you never had one.
  D         A
Home..........
           G
I can't say where it is, but I know I'm going
  D         A
Home..........
                             E
that's where the heart is.

Bridge:

Outro:

Walk On!
                                                                   Hooooo...........
e------------------------------------------------------------------------
A--------------------------------------------------------------------------
G---9--9--11--7--7-7----7---9--9--11--7--7-7---7---9--9--11--7--7-7-7--
D-----------------------9-------------------------9------------------------

e------------------
A-----------------
G--6-6--4-4--2-2--
D----------------          Repeat through-out ending.

Leave it behind; you got to leave it behind;
all that you fashion, all that you make,
all that you build, all that you break,
all that you measure, all that you feel
all this you can leave behind.
All that you reason, (it's only time)
(all that I'm feeling on my mind)
all that you sense, all that you scheme,
all you dress-up, and all that you see,
all you create, all that you wreck, all that you hate... -fades-
            
Submit corrections


        Walk On lessons Hard to play? Try these video lessons and learn fast Walk On lessons
        
↑ Back to top | Tablatures and chords for acoustic guitar and electric guitar, ukulele, drums are parodies/interpretations of the original songs. You may use it for private study, scholarship, research or language learning purposes only