Home » U » U2 »

U2 - Sunday Bloody Sunday Bass

Artists:  A B C D E F G H I J K L M N O P Q R S T U V W X Y Z # 

Sunday Bloody Sunday Bass

(ver. 3) Click to play this song!
U2
Band: U2
Tuning: Standard(E-A-D-G)
Difficulty: Easy

Intro : 

|---------------------8-6-------------------------------|
| ------------------------8-6---------------------------|
|-4-4-4-4-4-4-4-4-6-6---------8-6-4-4-4-4-4-4-4-4-6-----|
| ------------------------------------------------------|

Verse 1 :

|-------------------------------------------------------|
|-------------------------4-4-4-0-4---4-4-4-0-4---------|
|-1-1-1-0-1---4-4-4-0-4---------------------------------|
|-------------------------------------------------------| X8

|-------------9-------8----------------|
|-----------9---9---8---8--------------|
|-7-6-4---7-------6-------4------------|
|--------------------------------------|

Verse 2 :

|-------------------------------------------------------|
|-------------------------4-4-4-0-4---4-4-4-0-4---------|
|-1-1-1-0-1---4-4-4-0-4---------------------------------|
|-------------------------------------------------------| X8

|---------------------8-6-------------------------------|
|-------------------------8-6---------------------------|
|-4-4-4-4-4-4-4-4-6-6---------8-6-4-4-4-4-4-4-4-4-6-----|
|-------------------------------------------------------|

Verse 3 :

|------------------------------------------------------|
|-------------------------4-4-4-0-4---4-4-4-0-4--------|
|-1-1-1-0-1---4-4-4-0-4--------------------------------|
|------------------------------------------------------| X14

|-------------9-------8---------------|
|-----------9---9---8---8-------------|
|-7-6-4---7-------6-------4-----------| 
|-------------------------------------| X2

End : 

|------------------------------------------------------|
|-------------------------4-4-4-0-4---4-4-4-0-4--------|
|-1-1-1-0-1---4-4-4-0-4--------------------------------|
|------------------------------------------------------| X10

|---------|
|---------|
|-1-------|
|---------|
            
Submit corrections

↑ Back to top | Tablatures and chords for acoustic guitar and electric guitar, ukulele, drums are parodies/interpretations of the original songs. You may use it for private study, scholarship, research or language learning purposes only