Home » U » U2 »

U2 - Stuck In A Moment You Cant Get Out Of Bass

Artists:  A B C D E F G H I J K L M N O P Q R S T U V W X Y Z # 

Stuck In A Moment You Cant Get Out Of Bass

(ver. 1) Click to play this song!
U2
Riff 1
G------------------
D------------------
A----------2-4-----
E--0-4-5-4-----5-0-

Riff 2
G----------------------------------
D----------------------------------
A--4-4-4-4-------------------------
E----------5-5-5-5-2-2-2-2-5-5-5-5-

Riff 3
G----------------------------------
D----------------------------------
A--4-4-4-4---------4-4-4-4-2-2-2-2-
E----------5-5-5-5-----------------

Riff 4
G------------------
D------------------
A----------2-4-----
E--0-4-5-4-----5-0-

Riff 5
G----------------------------------
D----------------------------------
A----------------------------------
E--2-2-2-2-5-5-5-5-0-0-0-0-0-0-0-0-

Riff 6
G----------------------------------
D----------------------------------
A------------------5-5-5-5-2-2-2-2-
E--2-2-2-2-5-5-5-5-----------------

Riff 7
G-------
D-------
A----7--
E--0----

Order:
Riff 1 (x3)
Riff 2 (x1)
Riff 3 (x1)
Riff 1 (x1)
Riff 4 (x1)
Riff 1 (x2)
Riff 2 (x1)
Riff 3 (x1)
Riff 1 (x1)
Riff 4 (x1)
Riff 5 (x1)
Riff 6 (x1)
Riff 1 (x1)
Riff 4 (x1)
Riff 1 (x1)
Riff 4 (x1)
Riff 1 (x1)
Riff 4 (x1)
Riff 7 (x1)
            
Submit corrections

↑ Back to top | Tablatures and chords for acoustic guitar and electric guitar, ukulele, drums are parodies/interpretations of the original songs. You may use it for private study, scholarship, research or language learning purposes only