Home » U » U2 »

U2 - I Still Haven't Found What I'm Looking For Bass

Artists:  A B C D E F G H I J K L M N O P Q R S T U V W X Y Z # 

I Still Haven't Found What I'm Looking For Bass

(ver. 3) Click to play this song!
U2
"-------------------------------------------------------------------------------
	      I STILL HAVENT FOUND WHAT I'M LOOKING FOR - U2
-------------------------------------------------------------------------------


This is a chords-only bass tab of the song. It's incredibly simple, has 2
parts and only 3 chords alltogether. You'll get it the first time you play.
Enjoy!

Tuning: EADG

Verse (x2):
   C               C               F               C
G|---------------|---------------|---------------|---------------|
D|---------------|---------------|---------------|---------------|
A|-3--33---3--33-|-3--33---3--33-|---------------|-3--33---3--33-|
E|---------------|---------------|-1--11---1--11-|---------------|


Chorus:

   G       F       C               G       F       C
G|---------------|---------------|---------------|---------------|
D|---------------|---------------|---------------|---------------|
A|---------------|-3--33---3--33-|---------------|-3--33---3--33-|
E|-3--33---1--11-|---------------|-3--33---1--11-|---------------|

Repeat verse and chorus x 3, and then repeat chorus to fade.



Example:
		       C
VERSE:          I have climbed highest mountains
		
		I have run through the fields
		        F                    C
		only to be with you, only to be with you
		       C
		I have run, I have crawled
		                                           F
		I have scaled these city walls, these city walls
		        C
		only to be with you


		      G             F              C
CHORUS:         but I still haven't found what I'm looking for
		      G             F              C
		but I still haven't found what I'm looking for



===============================================================================
"            
Submit corrections

↑ Back to top | Tablatures and chords for acoustic guitar and electric guitar, ukulele, drums are parodies/interpretations of the original songs. You may use it for private study, scholarship, research or language learning purposes only