» » »

U2 - Electrical Storm Tabs

Artists:  A B C D E F G H I J K L M N O P Q R S T U V W X Y Z # 

Electrical Storm Tabs

(ver. 1) Click to play this song!
U2
 Rating:
4/5 (4 votes)

 Electrical Storm lessons Tabs too difficult? Try these video lessons and learn fast
 
                PROPS GO TO: Screwtape

ELECTRICAL STORM (SINGLE MIX)
Musica Por U2

Intro: F#m / A / E / B

E-------------------------
B-/12-10---5-7--5h7p5h7---
G-------------------------  X3
D-------------------------
A-------------------------
E-------------------------

Verse: F#m / A / E / B

E-----9-----9---------7-----7-------
B---7-----7-----7---7-----7-----7---
G-9-----9-----9---9-----9-----9----- 
D-----------------------------------
A-----------------------------------
E-----------------------------------

The sea it swells like a sore head
and the night it is aching
Two lovers lie with no sheets on their bed
and the day it is breaking 

On rainy days we go swimming out
on rainy days, swimming in the sound
On rainy days we go swimming out 

Pre-Chorus (Con Distorcion)

D5           E5              A5
You're in my mind all of the time
C#5           D5
I know that's not enough
D5                   E5
if the sky can crack
           A5
there must be some way back
C#5          D5
for love and only love 

2nd Verse: F#m / F#m / A / B

E-----9-----9---------7-----7-------
B---7-----7-----7---7-----7-----7---
G-9-----9-----9---9-----9-----9----- 
D-----------------------------------
A-----------------------------------
E-----------------------------------

Car alarm won't let you back to sleep
you're kept awake dreaming some else's dream
coffee is cold, but it will get you through
compromise, that's nothing new to you
let's see colours that have never been seen
let's go to places no one else has been 

Pre-Chorus (Con Distorcion)

D5           E5              A5
You're in my mind all of the time
C#5           D5
I know that's not enough
D5                   E5
if the sky can crack
           A5
there must be some way back
C#5          D5
for love and only love 

Chorus:

D / E
F#m / A
D / E
F#m / A
D / E
F#m / A
B
Baby don't cry 

Intro: F#m / A / E / B (2x)

E----------------------------------------------
B-/12-10---5-7--5h7p5h7---/12-10---9h10-9-7~---
G----------------------------------------------  
D----------------------------------------------
A----------------------------------------------
E----------------------------------------------

3th Verse (F#m / F#m / A / B)

It's hot as hell, honey in this room
sure hope the weather will break soon
the air is heavy, heavy as a truck
hope the rain will wash away our bad luck 

D5 / E5 / A5 / C#5 / D5 
heeeey... heeeey..... 

D5                   E5
Well, if the sky can crack
           A5
there must be some way back
C#5          D5
for love and only love 

D / E
F#m / A
D / E
F#m / A
D / E
F#m / A
B (long time)

Bridge: F5 / C5 / B5 / G5 / E5

Solo:

E--------------------------------
B--12/-10/-8/--7h8-7-5/3-3h5-----
G--------------------------------
D--------------------------------
A--------------------------------
E--------------------------------

E / A
Baby don't cry
Baby don't cry
Baby don't cry
Baby don't cry 

E-------------------------------------------------------------------------
B--3/5/7/5/7/8/10/8/10/12/13/14/15-14-14-15-14-14-15-14-14-15--17-17~~----
G-------------------------------------------------------------------------
D-------------------------------------------------------------------------
A-------------------------------------------------------------------------
E-------------------------------------------------------------------------

Eso es todo...



RIFF A (similar to this)
E-------10-------10-------------8--------8--------------
B-----8-------8--------8-----8-------8--------8---------
G--10------10-------10----10-----10--------10-----------
D-------------------------------------------------------
A-------------------------------------------------------
E-------------------------------------------------------
RIFF A (alternative)
E-------10-------10-------------8--------8--------------
B-----8-------8--------8-----8-------8--------8---------
G--10------10-------10----9--------9-------9------------
D-------------------------------------------------------
A-------------------------------------------------------
E-------------------------------------------------------

INTRO: RIFF A TWICE

VERSE 1,2: RIFF A
FOLLOWED BY
RIFF B
E-------------------------------------------------------
B-------------------------------------------------------
G-------------------------------------------------------
D-------------------------------------------------------
A-1-1-S-3-3-S-5-5-S-8-8-S-1-1-S-3-3-S-5-5-S-8-8---------
E-------------------------------------------------------

E-------------------------------------------------------
B-------------------------------------------------------
G-------------------------------------------------------
D-------------------------------------------------------
A-8-8-S-7-7-S-8-8-S-12-12-S-10-10-S-8-8-S-6-6-S-5-5-----
E-------------------------------------------------------

CHORUS
play this four times.........
E-------------------------------------------------------
B--11-10-------------11-11------------------------------
G--12----12-10----12-12-12------------------------------
D--12----------12---------------------------------------
A-------------------------------------------------------
E-------------------------------------------------------

...then
E------------------------10-----------------------------
B--11-10--------11-10-11-11-11--------------------------
G--------12--12-------------12--------------------------
D-------------------------------------------------------
A-------------------------------------------------------
E-------------------------------------------------------


OUTRO RIFF 1
E--------9-------9-------------9--------9---------------
B-----9-------9--------9-----9-------9--------9---------
G--11------11-------11----10-----10--------10-----------
D-------------------------------------------------------
A-------------------------------------------------------
E-------------------------------------------------------
OUTRO RIFF 2
w/slide
E-------------------------------------------------------
B-------------------------------------------------------
G-s-/12-s-/10-s-/8--7/s\8/s\7\5-5-s 7-------------------
D-------------------------------------------------------
A-------------------------------------------------------
E-------------------------------------------------------



Here are the chords from "Electrical Storm" for the verse

1----2-2---0-0---0--0---0---0------------------------------
2----2-2---2-2---0--0---0---0-----------------------------
3----2-2---2-2---1--1---2---1---------------------------
4----4-4---2-2---2--2---2---2----------------------------
5----4-4---0-0---2--2---2---2----------------------------
6----2-2---0-0---0--0---0---0-----------------------------

Fm - A - E - A/E¿? - E

The sea is swells like a sore head
and the night it is aching
Two lovers lie with no sheets on their bed
and the day it is breaking

On rainy days we go swimming out
on rainy days, swimming in the sound
On rainy days we go swimming out

You're in my mind all of the time
I know that's not enough
if the sky can crack
there must be some way back
for love and only love

Car alarm ? and back to sleep
you kept awake dreaming some else's dream
coffee is cold, but it will get you through
compromise, there's nothing new to you
let's see colours that have never been seen
let's go to places no one else has been

You're in my mind all of the time
I know that's not enough
if the sky can crack
there must be some way back
to love and only love

Baby don't cry

It's hot as hell, honey in this room
sure hope the weather will break soon
the air is heavy, heavy as a truck
hope the rain will wash away our bad luck

heeeey... heeeey.....

If the sky can crack, there must be some way back
for love and only love


Baby don't cry
Baby don't cry
Baby don't cry
Baby don't cry



ELECTRICAL STORM Storm

Intro: F#m / A / E / B

Verse: 
F#m / A / B
The sea it swells like a sore head
F#m / A / B
and the night it is aching
F#m / A / B
Two lovers lie with no sheets on their bed
F#m / A / B
and the day it is breaking 

F#m / A / B
On rainy days we go swimming out
F#m / A / B
on rainy days, swimming in the sound
F#m / A / B
On rainy days we go swimming out 

Pre-Chorus(?):
D E C#m
You're in my mind all of the time
D
I know that's not enough
D E
if the sky can crack
C#m
there must be some way back
D
for love and only love 

Intro: F#m / A / E / B

2nd Verse, Same as the First:

Car alarm won't let you back to sleep
you're kept awake dreaming some else's dream
coffee is cold, but it will get you through
compromise, that's nothing new to you
let's see colours that have never been seen
let's go to places no one else has been 

Pre-Chorus(?):
You're in my mind all of the time
I know that's not enough
if the sky can crack
there must be some way back
to love and only love 

Chorus:

D / E
F#m A
D / E
F#m A
D / E
F#m A
B
Baby don't cry 

Intro: F#m / A / E / B (2x)

Verse Chords: (F#m / A / B)
It's hot as hell, honey in this room
sure hope the weather will break soon
the air is heavy, heavy as a truck
hope the rain will wash away our bad luck 

D / E / C#m / D 
heeeey... heeeey..... 

D / E / C#m / D 
If the sky can crack, there must be some way back
for love and only love 

D / E
F#m A
D / E
F#m A
D / E
F#m A
B (long time)

Solo: F / C / E / A

E / A
Baby don't cry
Baby don't cry
Baby don't cry
Baby don't cry 



---------------------
Intro:  F#m  A  E  B
	F#m  A  E  B  F#m 

 
    A      E      B              F#m
The sea it swells like a sore head
  A                 E    B  F#m
and the night it is aching
A          E            B          F#m
Two lovers lie with no sheets on their bed
 A                E    B     F#m
and the day it is breaking 

A        E       B           F#m
On rainy days we go swimming out
A           E   B              F#m
on rainy days, swimming in the sound
A        E    B
On rainy days we go swimming out 

---------------------

D             E   A          C#m
You're in my mind all of the time
              D
I know that's not enough
D              E
if the sky can crack
 	A                C#m
there must be some way back
             D
for love and only love 

---------------------
F#m / A / E / B


F#m             A       B
Car alarm won't let you back to sleep
F#m               A             B
you're kept awake dreaming some else's dream
F#m             A           B
coffee is cold, but it will get you through
F#m                A       B
compromise, that's nothing new to you
F#m       A                 B          F#m 
let's see colours that have never been seen
            A             B        D
let's go to places no one else has been 

---------------------

              E   A          C#m
You're in my mind all of the time
              D
I know that's not enough
D                   E
well if the sky can crack
 	A              C#m
there must be some way back
             D
to love and only love 


D  E
 F#m   A
D  E
 F#m   A
D  E
 F#m   A
B           F#m  A  E  B
Baby don't cry 

F#m  A  E  B 


F#m               A             B
It's hot as hell, honey in this room
F#m                        A     B
sure hope the weather will break soon
F#m               A          B
the air is heavy, heavy as a truck
F#m                 A             B
we need the rain to wash away our bad luck 

D  E   A     C#m  D 
heeeeeeeeey... heeeey..... 

D                   E             A               C#m 
Well If the sky can crack, there must be some way back
             D           
for love and only love 

D  E
 F#m   A
D  E
 F#m   A
D  E
 F#m   A         B


F  C  Em  A    Em

           A   Em
Baby don't cry
           A   Em
Baby don't cry
           A   Em
Baby don't cry
           A   Em
Baby don't cry 
A  Em  A  Em  A  Em  ELECTRICAL STORM (SINGLE MIX)
Musica Por U2

Intro: F#m / A / E / B

E-------------------------
B-/12-10---5-7--5h7p5h7---
G-------------------------  X3
D-------------------------
A-------------------------
E-------------------------

Verse: F#m / A / E / B

E-----9-----9---------7-----7-------
B---7-----7-----7---7-----7-----7---
G-9-----9-----9---9-----9-----9----- 
D-----------------------------------
A-----------------------------------
E-----------------------------------

The sea it swells like a sore head
and the night it is aching
Two lovers lie with no sheets on their bed
and the day it is breaking 

On rainy days we go swimming out
on rainy days, swimming in the sound
On rainy days we go swimming out 

Pre-Chorus (Con Distorcion)

D5           E5              A5
You're in my mind all of the time
C#5           D5
I know that's not enough
D5                   E5
if the sky can crack
           A5
there must be some way back
C#5          D5
for love and only love 

2nd Verse: F#m / F#m / A / B

E-----9-----9---------7-----7-------
B---7-----7-----7---7-----7-----7---
G-9-----9-----9---9-----9-----9----- 
D-----------------------------------
A-----------------------------------
E-----------------------------------

Car alarm won't let you back to sleep
you're kept awake dreaming some else's dream
coffee is cold, but it will get you through
compromise, that's nothing new to you
let's see colours that have never been seen
let's go to places no one else has been 

Pre-Chorus (Con Distorcion)

D5           E5              A5
You're in my mind all of the time
C#5           D5
I know that's not enough
D5                   E5
if the sky can crack
           A5
there must be some way back
C#5          D5
for love and only love 

Chorus:

D / E
F#m / A
D / E
F#m / A
D / E
F#m / A
B
Baby don't cry 

Intro: F#m / A / E / B (2x)

E----------------------------------------------
B-/12-10---5-7--5h7p5h7---/12-10---9h10-9-7~---
G----------------------------------------------  
D----------------------------------------------
A----------------------------------------------
E----------------------------------------------

3th Verse (F#m / F#m / A / B)

It's hot as hell, honey in this room
sure hope the weather will break soon
the air is heavy, heavy as a truck
hope the rain will wash away our bad luck 

D5 / E5 / A5 / C#5 / D5 
heeeey... heeeey..... 

D5                   E5
Well, if the sky can crack
           A5
there must be some way back
C#5          D5
for love and only love 

D / E
F#m / A
D / E
F#m / A
D / E
F#m / A
B (long time)

Bridge: F5 / C5 / B5 / G5 / E5

Solo:

E--------------------------------
B--12/-10/-8/--7h8-7-5/3-3h5-----
G--------------------------------
D--------------------------------
A--------------------------------
E--------------------------------

E / A
Baby don't cry
Baby don't cry
Baby don't cry
Baby don't cry 

E-------------------------------------------------------------------------
B--3/5/7/5/7/8/10/8/10/12/13/14/15-14-14-15-14-14-15-14-14-15--17-17~~----
G-------------------------------------------------------------------------
D-------------------------------------------------------------------------
A-------------------------------------------------------------------------
E-------------------------------------------------------------------------

Eso es todo...



RIFF A (similar to this)
E-------10-------10-------------8--------8--------------
B-----8-------8--------8-----8-------8--------8---------
G--10------10-------10----10-----10--------10-----------
D-------------------------------------------------------
A-------------------------------------------------------
E-------------------------------------------------------
RIFF A (alternative)
E-------10-------10-------------8--------8--------------
B-----8-------8--------8-----8-------8--------8---------
G--10------10-------10----9--------9-------9------------
D-------------------------------------------------------
A-------------------------------------------------------
E-------------------------------------------------------

INTRO: RIFF A TWICE

VERSE 1,2: RIFF A
FOLLOWED BY
RIFF B
E-------------------------------------------------------
B-------------------------------------------------------
G-------------------------------------------------------
D-------------------------------------------------------
A-1-1-S-3-3-S-5-5-S-8-8-S-1-1-S-3-3-S-5-5-S-8-8---------
E-------------------------------------------------------

E-------------------------------------------------------
B-------------------------------------------------------
G-------------------------------------------------------
D-------------------------------------------------------
A-8-8-S-7-7-S-8-8-S-12-12-S-10-10-S-8-8-S-6-6-S-5-5-----
E-------------------------------------------------------

CHORUS
play this four times.........
E-------------------------------------------------------
B--11-10-------------11-11------------------------------
G--12----12-10----12-12-12------------------------------
D--12----------12---------------------------------------
A-------------------------------------------------------
E-------------------------------------------------------

...then
E------------------------10-----------------------------
B--11-10--------11-10-11-11-11--------------------------
G--------12--12-------------12--------------------------
D-------------------------------------------------------
A-------------------------------------------------------
E-------------------------------------------------------


OUTRO RIFF 1
E--------9-------9-------------9--------9---------------
B-----9-------9--------9-----9-------9--------9---------
G--11------11-------11----10-----10--------10-----------
D-------------------------------------------------------
A-------------------------------------------------------
E-------------------------------------------------------
OUTRO RIFF 2
w/slide
E-------------------------------------------------------
B-------------------------------------------------------
G-s-/12-s-/10-s-/8--7/s\8/s\7\5-5-s 7-------------------
D-------------------------------------------------------
A-------------------------------------------------------
E-------------------------------------------------------



Here are the chords from "Electrical Storm" for the verse

1----2-2---0-0---0--0---0---0------------------------------
2----2-2---2-2---0--0---0---0-----------------------------
3----2-2---2-2---1--1---2---1---------------------------
4----4-4---2-2---2--2---2---2----------------------------
5----4-4---0-0---2--2---2---2----------------------------
6----2-2---0-0---0--0---0---0-----------------------------

Fm - A - E - A/E¿? - E

The sea is swells like a sore head
and the night it is aching
Two lovers lie with no sheets on their bed
and the day it is breaking

On rainy days we go swimming out
on rainy days, swimming in the sound
On rainy days we go swimming out

You're in my mind all of the time
I know that's not enough
if the sky can crack
there must be some way back
for love and only love

Car alarm ? and back to sleep
you kept awake dreaming some else's dream
coffee is cold, but it will get you through
compromise, there's nothing new to you
let's see colours that have never been seen
let's go to places no one else has been

You're in my mind all of the time
I know that's not enough
if the sky can crack
there must be some way back
to love and only love

Baby don't cry

It's hot as hell, honey in this room
sure hope the weather will break soon
the air is heavy, heavy as a truck
hope the rain will wash away our bad luck

heeeey... heeeey.....

If the sky can crack, there must be some way back
for love and only love


Baby don't cry
Baby don't cry
Baby don't cry
Baby don't cry



ELECTRICAL STORM Storm

Intro: F#m / A / E / B

Verse: 
F#m / A / B
The sea it swells like a sore head
F#m / A / B
and the night it is aching
F#m / A / B
Two lovers lie with no sheets on their bed
F#m / A / B
and the day it is breaking 

F#m / A / B
On rainy days we go swimming out
F#m / A / B
on rainy days, swimming in the sound
F#m / A / B
On rainy days we go swimming out 

Pre-Chorus(?):
D E C#m
You're in my mind all of the time
D
I know that's not enough
D E
if the sky can crack
C#m
there must be some way back
D
for love and only love 

Intro: F#m / A / E / B

2nd Verse, Same as the First:

Car alarm won't let you back to sleep
you're kept awake dreaming some else's dream
coffee is cold, but it will get you through
compromise, that's nothing new to you
let's see colours that have never been seen
let's go to places no one else has been 

Pre-Chorus(?):
You're in my mind all of the time
I know that's not enough
if the sky can crack
there must be some way back
to love and only love 

Chorus:

D / E
F#m A
D / E
F#m A
D / E
F#m A
B
Baby don't cry 

Intro: F#m / A / E / B (2x)

Verse Chords: (F#m / A / B)
It's hot as hell, honey in this room
sure hope the weather will break soon
the air is heavy, heavy as a truck
hope the rain will wash away our bad luck 

D / E / C#m / D 
heeeey... heeeey..... 

D / E / C#m / D 
If the sky can crack, there must be some way back
for love and only love 

D / E
F#m A
D / E
F#m A
D / E
F#m A
B (long time)

Solo: F / C / E / A

E / A
Baby don't cry
Baby don't cry
Baby don't cry
Baby don't cry 



---------------------
Intro:  F#m  A  E  B
	F#m  A  E  B  F#m 

 
    A      E      B              F#m
The sea it swells like a sore head
  A                 E    B  F#m
and the night it is aching
A          E            B          F#m
Two lovers lie with no sheets on their bed
 A                E    B     F#m
and the day it is breaking 

A        E       B           F#m
On rainy days we go swimming out
A           E   B              F#m
on rainy days, swimming in the sound
A        E    B
On rainy days we go swimming out 

---------------------

D             E   A          C#m
You're in my mind all of the time
              D
I know that's not enough
D              E
if the sky can crack
 	A                C#m
there must be some way back
             D
for love and only love 

---------------------
F#m / A / E / B


F#m             A       B
Car alarm won't let you back to sleep
F#m               A             B
you're kept awake dreaming some else's dream
F#m             A           B
coffee is cold, but it will get you through
F#m                A       B
compromise, that's nothing new to you
F#m       A                 B          F#m 
let's see colours that have never been seen
            A             B        D
let's go to places no one else has been 

---------------------

              E   A          C#m
You're in my mind all of the time
              D
I know that's not enough
D                   E
well if the sky can crack
 	A              C#m
there must be some way back
             D
to love and only love 


D  E
 F#m   A
D  E
 F#m   A
D  E
 F#m   A
B           F#m  A  E  B
Baby don't cry 

F#m  A  E  B 


F#m               A             B
It's hot as hell, honey in this room
F#m                        A     B
sure hope the weather will break soon
F#m               A          B
the air is heavy, heavy as a truck
F#m                 A             B
we need the rain to wash away our bad luck 

D  E   A     C#m  D 
heeeeeeeeey... heeeey..... 

D                   E             A               C#m 
Well If the sky can crack, there must be some way back
             D           
for love and only love 

D  E
 F#m   A
D  E
 F#m   A
D  E
 F#m   A         B


F  C  Em  A    Em

           A   Em
Baby don't cry
           A   Em
Baby don't cry
           A   Em
Baby don't cry
           A   Em
Baby don't cry 
A  Em  A  Em  A  Em
            
Submit corrections


        Electrical Storm lessons Hard to play? Try these video lessons and learn fast Electrical Storm lessons
        
↑ Back to top | Tablatures and chords for acoustic guitar and electric guitar, ukulele, drums are parodies/interpretations of the original songs. You may use it for private study, scholarship, research or language learning purposes only