Home » U » U2 »

U2 - Do You Feel Loved Bass

Artists:  A B C D E F G H I J K L M N O P Q R S T U V W X Y Z # 

Do You Feel Loved Bass

(ver. 1) Click to play this song!
U2
Here's the version I firgured out for 'Do You Feel Loved' by U2.

(Standard Tuning)


D|----0--3-3--5-5----5-5--3-3--0-0----
(play X 10)


D|----0-0-0-0-0-0-0-0---------------------3-3-3-3-3-3-3-3--5-5-5-5-5-5-5-5

A|-----------------------3-3-3-3-3-3-3-3-
(play X 3)

D|----0--3-3--5-5----5-5--3-3--0-0----
(play X 2)

Rest for 8 measures

D|----0--3-3--5-5----5-5--3-3--0-0----
(play X 2)

D|----0-0-0-0-0-0-0-0--------------------3-3-3-3-3-3-3-3--5-5-5-5-5-5-5-5

A|-----------------------3-3-3-3-3-3-3-3-
(play X 3)

D|----3-3-3-3-3-3-3-3--5-5-5-5-5-5-5-5


D|----0--3-3--5-5----5-5--3-3--0-0
(play X 10)

D|----0-0-0-0-0-0-0-0--------------------3-3-3-3-3-3-3-3--5-5-5-5-5-5-5-5

A|-----------------------3-3-3-3-3-3-3-3-
(play X 2)

D|----3-3-3-3-3-3-3-3--5-5-5-5-5-5-5-5


D|----3-3-3-3-3-3-3-3--5-5-5-5--/12
(play X 2)

D|----0-0-0-0-0-0-0-0--------------------3-3-3-3-3-3-3-3--5-5-5-5-5-5-5-5

A|-----------------------3-3-3-3-3-3-3-3-
(play X 2)

D|----0-0-0-0-0-0-0-0-
A|-----------------------3-3-3-3-3-3-3-3


D|----0--3-3--5-5----5-5--3-3--0-0
(play X 6)
FADE OUT



That's my interpretation...hope you find it useful....

Aaron Jauch


This is the main bass riff to "Do You Feel Loved":

(might want to tune down 1/2 step...)

E (low E): ---0-0--3-3--5-5----5-5--3-3--0-0--------
this is pretty much the whole song!

corrections, etc... to:


This is an addition/correction to the bass tab for Do You Feel Loved?

Tuning: D A D G 

Verse:
Low D-------0-3-3-3---5-5---5-5-3-3---0-0

Chorus:
D--0-0-0-0-0-0-0-0-------------------------------------------------
A-------------------3-3-3-3-3-3-3-3--------------------------------
D-----------------------------------3-3-3-3-3-3-3-3-5-5-5-5-5-5-5-5

So basically the verse is D F G F
and the chorus is D C F G 

Note: This is not a complete transcription. I'll post more when I finish.

-Rhythm

-Correction-

Do You Feel Loved
This is the main bass riff :

G------------------------------------------------
D---------3-3------5-5-----5-5-----3-3-----------
A--5-5-------------------------------------5-5---
E------------------------------------------------
First I played the song the way it was posted, it sounded okay, but this I
figured
out sounds better!
If anyone knows the rest of this song, e-mail it to me please! 
            
Submit corrections

↑ Back to top | Tablatures and chords for acoustic guitar and electric guitar, ukulele, drums are parodies/interpretations of the original songs. You may use it for private study, scholarship, research or language learning purposes only