Home » U » U2 »

U2 - Discotheque Bass

Artists:  A B C D E F G H I J K L M N O P Q R S T U V W X Y Z # 

Discotheque Bass

(ver. 2) Click to play this song!
U2
#------------------------------------------------------------------------------##

                          DISCOTHÉQUE (Bassline) (Live)
                                As recorded by U2


Gtr I (D# G# C# F#) - 'Untitled'

 4/4
  Gtr I
   W         W        W        W
|-----------------------------------|
|-----------------------------------|
|-----------------------------------|
|-/7\-------------------------------|


    E E E E E E E E E E E E E E E E E E E E E E E E E E E E E E E E    4x
||---------------------------------------------------------------------||
||o-------------------------------------------------------------------o||
||o-------------------------------------------------------------------o||
||--7-7-7-5-7-7-7-5-3-3-3-5-3-0-3-5-7-7-7-5-7-7-7-5-3-3-3-5-3-0-3-5----||


    E E E E E E E E E E E E E E E E E E E E E E E E E E E E E E E E
||---------------------------------------------------------------------||
||o-------------------------------------------------------------------o||
||o-5-5-5-4-5-4-5-7-7-7-7-7-7-7-7-7-5-5-5-4-5-4-5-7-7-7-7-7-7-7-7-7---o||
||---------------------------------------------------------------------||


   W         W        W        W
|-----------------------------------|
|-----------------------------------|
|-----------------------------------|
|-/7\-------------------------------|


  Wx4
|--------|
|--------|
|--------|
|--------|


    E E E E E E E E E E E E E E E E E E E E E E E E E E E E E E E E    5x
||---------------------------------------------------------------------||
||o-------------------------------------------------------------------o||
||o-------------------------------------------------------------------o||
||--7-7-7-5-7-7-7-5-3-3-3-5-3-0-3-5-7-7-7-5-7-7-7-5-3-3-3-5-3-0-3-5----||


    E E E E E E E E E E E E E E E E E E E E E E E E E E E E E E E E
||---------------------------------------------------------------------||
||o-------------------------------------------------------------------o||
||o-5-5-5-4-5-4-5-7-7-7-7-7-7-7-7-7-5-5-5-4-5-4-5-7-7-7-7-7-7-7-7-7---o||
||---------------------------------------------------------------------||


    H.      E E H.      Q  H.      Q  H.      E E    6x
||---------------------------------------------------||
||o-------------------------------------------------o||
||o-------------------------------------------------o||
||--7-------0-5-7-------7--0-------7--0-------0-5----||


  E E E E E E E E E E E E E E E E E E E E E E E E E E E E E E E E
|--------------------------------------------------------------------|
|--------------------------------------------------------------------|
|--------------------------------------------------------------------|
|-7-7-7-7-7-7-7-7-7-7-7-7-7-7-7-7-0-0-0-0-0-0-0-0-0-0-0-0-0-0-0-0----|


  E E E E E E E E E E E E E E E E  E  E  E  E  E  E  E  E  E  E  E  E  E  E  E  E
|------------------------------------------------------------------------------------|
|------------------------------------------------------------------------------------|
|------------------------------------------------------------------------------------|
|-3-3-3-3-3-3-3-3-3-3-3-3-3-3-3-3-10-10-10-10-10-10-10-10-10-10-10-10-10-10-10-10----|


  W          W        W          W
|-------------------------------------|
|-------------------------------------|
|-2--------/14--------2--------/14----|
|-------------------------------------|


    E E E E E E E E E E E E E E E E E E E E E E E E E E E E E E E E
||------------------------------------------------------------------||
||o----------------------------------------------------------------o||
||o----------------------------------------------------------------o||
||--7-7-7-7-7-7-5-5-3-3-3-3-3-3-5-5-7-7-7-7-7-7-5-5-3-3-3-3-3-3-5-5-||


    E E S E E S E E E E E S E E S E E E E E S E E S E E E E E S E E S E E E  4x
||---------------------------------------------------------------------------||
||o---9---9-9---9-9-----5---5-5---5---7---9---9-9---9-9-----5---5-5---5---7-o||
||o-------------------------------------------------------------------------o||
||--7---7-----7-----5-3---3-----3---5---7---7-----7-----5-3---3-----3---5----||


  E E S E E S E E E E E E S E S E E E W        +W
|-----------------------------------------------------|
|---9---9-9---9-9-----5---5-5---5---7-----------------|
|-----------------------------------------------------|
|-7---7-----7-----5-3---3-----3---5---7--------(7)----|


Duration Legend
---------------
W - whole; H - half; Q - quarter; E - 8th; S - 16th; T - 32nd; X - 64th; a - acciaccatura
+ - note tied to previous; . - note dotted; .. - note double dotted
Uncapitalized letters represent notes that are staccato (1/2 duration)
Irregular groupings are notated above the duration line
Duration letters will always appear directly above the note/fret number it represents the
duration for.  Duration letters with no fret number below them represent rests.  Multi-
bar rests are notated in the form Wxn, where n is the number of bars to rest for.  Low
melody durations appear below the staff

Tablature Legend
----------------
 h   - hammer-on
 p   - pull-off
 b   - bend
 pb  - pre-bend
 r   - bend release (if no number after the r, then release immediately)
 /\  - slide into or out of (from/to "nowhere")
 s   - legato slide
 S   - shift slide
  - natural harmonic
[n]  - artificial harmonic
n(n) - tapped harmonic
 ~   - vibrato
 tr  - trill
 T   - tap
 TP  - trem. picking
 PM  - palm muting
\n/  - tremolo bar dip; n = amount to dip
 \n  - tremolo bar down
 n/  - tremolo bar up
/n\  - tremolo bar inverted dip
 =   - hold bend; also acts as connecting device for hammers/pulls
 <>  - volume swell (louder/softer)
 x   - on rhythm slash represents muted slash
 o   - on rhythm slash represents single note slash

Misc Legend
-----------
 |  - bar
||  - double bar
||o - repeat start
o|| - repeat end
*|  - double bar (ending)
 :  - bar (freetime)
 $  - Segno
 &  - Coda
Tempo markers -  = BPM(8/16=s8/s16), where s8 = swing 8ths, s16 = swing 16ths


***************************************************************************************
***************************************************************************************
            
Submit corrections

↑ Back to top | Tablatures and chords for acoustic guitar and electric guitar, ukulele, drums are parodies/interpretations of the original songs. You may use it for private study, scholarship, research or language learning purposes only