» » »

Tyler Joseph - Blasphemy Tabs

Artists:  A B C D E F G H I J K L M N O P Q R S T U V W X Y Z # 

Blasphemy Tabs

(ver. 2) Click to play this song!
Tyler Joseph
 Rating:
4.3/5 (18 votes)

 Blasphemy lessons Tabs too difficult? Try these video lessons and learn fast
 
                [Intro]

e|--------------------------------------------------------------------|
B|----9----9------------8---8-----------6---6-----------8---8---------|
G|-10---10------------8---8-----------6---6-----------5---5-----------|
D|--------------------------------------------------------------------|
A|--------------------------------------------------------------------|
E|--------------------------------------------------------------------|

e|-----------8----------------8---------------8---------------8-------|
B|----9----9---9----9---8---8---8---8---6---6---6---6---8---8---8---8-|
G|-10---10-------10---8---8-------8---6---6-------6---5---5-------5---|
D|--------------------------------------------------------------------|
A|--------------------------------------------------------------------|
E|--------------------------------------------------------------------|

[Verse]

e|-----------8----------------8---------------8---------------8-------|
B|----9----9---9----9---8---8---8---8---6---6---6---6---8---8---8---8-|
G|-10---10-------10---8---8-------8---6---6-------6---5---5-------5---|
D|--------------------------------------------------------------------|
A|--------------------------------------------------------------------|
E|--------------------------------------------------------------------|


[Chorus]

   Fm              Db          Ab          Eb
e|-8--8----8--8----4-4---4-4---4-4---4-4---6-6---6-6-|
B|-9--9----9--9----6-6---6-6---4-4---4-4---8-8---8-8-|
G|-10-10---10-10---6-6---6-6---5-5---5-5---8-8---8-8-|
D|-10-10---10-10---6-6---6-6---6-6---6-6---8-8---8-8-|
A|-8--8----8--8----4-4---4-4---6-6---6-6---6-6---6-6-|
E|-----------------------------4-4---4-4-------------|

e|-1-1---1-1---4-4---4-4---4-4---4-4---6-6---6-6-|
B|-1-1---1-1---6-6---6-6---4-4---4-4---8-8---8-8-|
G|-1-1---1-1---6-6---6-6---5-5---5-5---8-8---8-8-|
D|-2-2---2-2---6-6---6-6---6-6---6-6---8-8---8-8-|
A|-2-2---2-2---4-4---4-4---6-6---6-6---6-6---6-6-|
E|-1-1---1-1---------------4-4---4-4-------------|


[Verse 2]

e|--------------------------------------------------------------------|
B|----9----9------------8---8-----------6---6-----------8---8---------|
G|-10---10------------8---8-----------6---6-----------5---5-----------|
D|--------------------------------------------------------------------|
A|--------------------------------------------------------------------|
E|--------------------------------------------------------------------|

Enough about me...
e|-----------8----------------8---------------8---------------8-------|
B|----9----9---9----9---8---8---8---8---6---6---6---6---8---8---8---8-|
G|-10---10-------10---8---8-------8---6---6-------6---5---5-------5---|
D|--------------------------------------------------------------------|
A|--------------------------------------------------------------------|
E|--------------------------------------------------------------------|

            
Submit corrections


        Blasphemy lessons Hard to play? Try these video lessons and learn fast Blasphemy lessons
        
↑ Back to top | Tablatures and chords for acoustic guitar and electric guitar, ukulele, drums are parodies/interpretations of the original songs. You may use it for private study, scholarship, research or language learning purposes only