» » »

Twrp - The Hit Tabs

Artists:  A B C D E F G H I J K L M N O P Q R S T U V W X Y Z # 

The Hit Tabs

(ver. 1) Click to play this song!
Twrp
 Rating:
2/5 (27 votes)

 The Hit  lessons Tabs too difficult? Try these video lessons and learn fast
 
                MAIN RIFF|

E||------------------------------------------------------------------------------------------|
B||--------------6-----5--5-----------------6-----5--5-----6-----------6-----5--5------------|
G||--7-----------7-----5--5--5--7--5--------7-----5--5-----7-----------7-----7--7--5--7--5---|
D||--7-----------x-----x--x--5--7--5--------x-----x--x-----7-----------x-----x--x--5--7--5---|
A||--5-----------5-----5--5--5--5--5--------5-----5--5-----5-----------5-----5--5--5--5--5---|
E||------------------------------------------------------------------------------------------|

E|---------------|  Before you run the the comments, I am aware of the super fresh transition here.
B|--10-----8--8--|  I just cant quite figure it out.
G|--10-----10-10-|
D|--0------0--0--|
A|---------------|
E|---------------|

Verse Backing

E|------------------------------|
B|------------------------------|
G|--7---------x-7---x-7---------| X2
D|--7---------x-7---x-7---------|
A|--5---------x-5---x-5---------|
E|------------------------------|

E|------------------------------|
B|------------------------------|
G|--5---------x-5---x-5---------| X2
D|--5---------x-5---x-5---------|
A|--3---------x-3---x-3---------|
E|------------------------------|

Verse Solo

E||-------------------------------------------------------------------------------------------------|
B||-------------------------------------------------------------------------------------------------|
G||-------------------------------------------10----------------------------------------------10----|
D||-------------------------------10-12----------12-------------------------------10-12----------12-|
A||-------------10-12-10-12-10-12-------10-12-------------------10-12-10-12-10-12-------10-12-------|
E||-10-13-10-13-------------------------------------10-13-10-13-------------------------------------|

E|-------------------------------------------------------------------------------------|
B|-------------------------------------------------------------------------------------| Repeat
G|-------------------------------------10----------------------------------------10----|
D|-------------------------10-12----------12-------------------------10-12----------12-|
A|-----------7-8-7-8-10-12-------10-12-----------------7-8-7-8-10-12-------10-12-------|
E|-8-10-8-10---------------------------------8-10-8-10---------------------------------|            
Submit corrections


        The Hit  lessons Hard to play? Try these video lessons and learn fast The Hit  lessons
        
↑ Back to top | Tablatures and chords for acoustic guitar and electric guitar, ukulele, drums are parodies/interpretations of the original songs. You may use it for private study, scholarship, research or language learning purposes only