» » »

Twrp - Phantom Racer Tabs

Artists:  A B C D E F G H I J K L M N O P Q R S T U V W X Y Z # 

Phantom Racer Tabs

(ver. 1) Click to play this song!
Twrp
 Rating:
4.2/5 (30 votes)

 Phantom Racer lessons Tabs too difficult? Try these video lessons and learn fast
 
                [Intro]

e|---------------------------------------------------------------------------|
B|---------------------------------------------------------------------------|
G|---------------------------------------------------------------------------|
D|---------------------------------------------------------------------------|
A|------------------7-7-7-7-7-7-7-7------------------------------------------| x4
E|-0-0-0-0-0-0-0-0-----------------------------------------------------------|

[Chorus]

e|---------------------------------------------------------------------------|
B|-10--9---8-8-8---7-7-7---10--9---8-8-8---7--------10--9--8-8-8--7-7--------|
G|-9---9---7-7-7---7-7-7---9---9---7-7-7---7--7--9--9---9--7-7-7--7-7--------|
D|-7---9---5-5-5---7-7-7---7---9---5-5-5---7--7--9--7---9--5-5-5--7-7---5-7-9|
A|-7---7---5-5-5---5-5-5---7---7---5-5-5---5--5--7--7---7--5-5-5--5-5---5-7-9| x2
E|----------------------------------------------------------------------3-5-7|
              Only add the last part when played a second time
e|---------------------------------------------------------------------------|
B|---------------------------------------------------------------------------|
G|---------------------------------------------------------------------------|
D|-9-7-----------------------------------------------------------------------|
A|-----9-7-------------------------------------------------------------------|
E|---------10-9-7-7----------------------------------------------------------|
  if you want to play the riff instead of the chord this is best i got sorry fam

[Riff]
e|---------------------------------------------------------------------------|
B|---------------------------------------------------------------------------|
G|---------------------------------------------------------------------------|
D|---------------------------------------------------------------------------|
A|-7-5-7-7-5-7-5-7-5----7-5-7-7-5-7-5---8-7--7-5-7-7-5-7-5--5-7---7-5-7-7-5-7|
E|-------------------7----------------7--------------------7-----------------|

[Verse]
e|---------------------------------------------------------------------------|
B|---------------------------------------------------------------------------|
G|---------------------------------------------------------------------------|
D|-x-x-10--x-x-10--x-10--x-x-10--x-x-10--x-x-12--x-x-12-x-x-12---------------|
A|-x-x-10--x-x-10--x-10--x-x-10--x-x-10--x-x-12--x-x-12-x-x-12---------------|
E|-x-x-8---x-x-8---x-8---x-x-8---x-x-8---x-x-10--x-x-10-x-x-10---------------|
   Listen closely for when these are played
e|---------------------------------------------------------------------------|
B|---------------------------------------------------------------------------|
G|---------------------------------------------------------------------------|
D|--10--9--7--5--3-----------------------------------------------------------|
A|--10--9--7--5--3-----------------------------------------------------------|
E|--8---7--5--3--1-----------------------------------------------------------|            
Submit corrections


        Phantom Racer lessons Hard to play? Try these video lessons and learn fast Phantom Racer lessons
        
↑ Back to top | Tablatures and chords for acoustic guitar and electric guitar, ukulele, drums are parodies/interpretations of the original songs. You may use it for private study, scholarship, research or language learning purposes only