Home » T » Twothirtyeight »

Twothirtyeight - There Is No Dana Tabs

Artists:  A B C D E F G H I J K L M N O P Q R S T U V W X Y Z # 

There Is No Dana Tabs

(ver. 1) Click to play this song!
Twothirtyeight
Intro and first verse:

First guitar:
   C#5 A5  F#5 D5                                                                    
e|-x---x---x---x-|
B|-x---x---x---x-|
G|-6---x---x---7-|
D|-6---7---4---7-|
A|-4---7---4---5-|
E|-x---5---2---x-|
                                                                              
Second guitar:
e|-------4-----------------------|
B|-5-0-2---0-2-0-----------------|
G|---------------2/3\2---1-1/2\1-|
D|-------------------------------|
A|-------------------------------|
E|-------------------------------| x2

First guitar:                                                                              
e|-----------------------------|
B|-----------------------------|
G|-----------------------2---4-|
D|------6-4-1-2-1-2-1----------|
A|--4------------------0-------|
E|-------------------------4---| x4
                                                                              
Second guitar:
e|------4-2--------------5---7-|
B|--2-------4-5-4-5-4----------|
G|---------------------2-------|
D|-------------------------6---|
A|-----------------------------|
E|-----------------------------| x2                                                            


Chorus:

First guitar: 
C#5 - A5 - F#5 - D5

Second guitar
e|----------------0-2---4-5-|
B|----------3-2-------------|
G|----2-1-------------------|
D|--2-----2-----2-----2-----|
A|--------------------------|
E|--------------------------| x4

                                                              
Verse 2: 

First guitar:
C#5 - A5 - F#5 - D5
              
e|-----------------|
B|-----------------|
G|-11-13-11-9----9-|
D|------------11---|  
A|-----------------|
E|-----------------| x16


Chorus:

First guitar: 
C#5 - A5 - F#5 - D5

Second guitar
e|----------------0-2---4-5-|
B|----------3-2-------------|
G|----2-1-------------------|
D|--2-----2-----2-----2-----|
A|--------------------------|
E|--------------------------| x2


Ending:

Second guitar:
e|-------|
B|-------|
G|-14-13-|
D|-------|
A|-------|
E|-------|

e|-----------------|
B|-----------------|
G|-11-13-11-9----9-|
D|------------11---|  
A|-----------------|
E|-----------------|

First guitar                                                                            
e|-4--5--4--2-0--2-|
B|-----------------|
G|-----------------|
D|-----------------|  
A|-----------------|
E|-----------------|

End:

Second guitar
e|-----|
B|-----|
G|--9\-|
D|-----|  
A|-----|
E|-----|
            
Submit corrections

↑ Back to top | Tablatures and chords for acoustic guitar and electric guitar, ukulele, drums are parodies/interpretations of the original songs. You may use it for private study, scholarship, research or language learning purposes only