» » »

Twisted Sister - Bad Boys (Of Rock 'n' Roll) Bass

Artists:  A B C D E F G H I J K L M N O P Q R S T U V W X Y Z # 

Bad Boys (Of Rock 'n' Roll) Bass

(ver. 1) Click to play this song!
Twisted Sister
 Rating:
4/5 (4 votes)
                Bad Boys (of Rock 'N' Roll)
Twisted Sister

Intro
G|-------------------------------------------|
D|-------------------------------------------|
A|---5---5-5-------------5---5-5-------------|
E|-------------3---3-3-------------5---5-5---|

G|-----------------------------------|
D|-----------------------------------|
A|---5---5-5-------------5-----------|
E|-------------3---3-3-------3--5----|

Verse
G|-------------------------------------------|
D|-------------------------------------------|
A|---5---5-5-------------5---------5---5-5---|	x2
E|-------------3---3-3-------3--5------------|

G|--------------------------------------------------------|
D|-------------------5-4----------------------------------|
A|---4~--5~-------5---------4~--5~--55555555-7------------|
E|------------5~-------------------------------------3-5--|

Chorus
G|-----------------------|		|----------------|	|------|
D|-----------------------|		|----------------|	|------|
A|---5---5-5-------------|	x3	|----------------|	|------|
E|-------------3---3-3---|		|---33333333-5---|	|--3-5-|

Song stucture
Intro		x1
Verse		x1
Chorus		x1
Intro		x1
Verse		x1
Chorus		x1
Solo (Intro)	x2
Verse		x1
Chorus		x2
Intro		x….

if you have any problem, or if you find an error, write me
            
Submit corrections

↑ Back to top | Tablatures and chords for acoustic guitar and electric guitar, ukulele, drums are parodies/interpretations of the original songs. You may use it for private study, scholarship, research or language learning purposes only