Home » T » Twista »

Twista - Hope Tabs

Artists:  A B C D E F G H I J K L M N O P Q R S T U V W X Y Z # 

Hope Tabs

(ver. 1) Click to play this song!
Twista
e|------------------------------|-------------------------------------|
B|------------------------------|------0---------3--------------------|
G|-----0-------2-----0----------|------------------------0------------|
D|----0-------0-----2--2--2-----|-----0--------0--------2--2--2-------|
A|---2-------0-----2----2-------|----2--------0--------2----2---------|
E|--3-------2-----0-------------|---3--------2--------0---------------|

e|------------------------------|-----------------------0--3/5\3------|
B|------------------------------|------1-------3----------------------|
G|-----0-------2------0---------|-----0-------2-----------------------|
D|----0-------0------2--2--2----|----2-------0------------------------|
A|---2-------0------2----2------|---0-------2------3------------------|
E|--3-------2------0------------|-------------------------------------|
            
Submit corrections

↑ Back to top | Tablatures and chords for acoustic guitar and electric guitar, ukulele, drums are parodies/interpretations of the original songs. You may use it for private study, scholarship, research or language learning purposes only