» » »

Twin Peaks - Telephone Tabs

Artists:  A B C D E F G H I J K L M N O P Q R S T U V W X Y Z # 

Telephone Tabs

(ver. 1) Click to play this song!
Twin Peaks
 Rating:
4.3/5 (22 votes)

 Telephone  lessons Tabs too difficult? Try these video lessons and learn fast
 
                [Intro]

   Guitar 1
e|-0----------------|-2----------------|------------------|--------------------|
B|-0----------------|-4----------------|----5-------------|--------------------|
G|-1----------------|-4----------------|----6-------------|-------3------------|
D|-2----------------|-4----------------|----6-------------|----6---------------|
A|-2----------------|-2----------------|----4-------------|--------------------|
E|-0----------------|------------------|------------------|--------------------|
 |
 | Guitar 2
e|-7------------7h9-|-7-------------7--|-9-------------9--|-6------------------|
B|-9------------9---|-7-------------7--|-9-------------9--|-7------------------|
G|-9----------------|-8-------------8--|-9-------------9--|-6------------------|
D|-9----------------|-9-------------9--|-11------------11-|--------------------|
A|------------------|------------------|------------------|--------------------|
E|------------------|------------------|------------------|--------------------|



[Verse]

   Guitar 1 
e|-0----------------|-2----------------|------------------|--------------------|
B|-0----------------|-4----------------|----5-------------|--------------------|
G|-1----------------|-4----------------|-------6----------|-------3------------|  play 2x
D|-2----------------|-4----------------|----------6-------|----6---------------|
A|-2----------------|-2----------------|------------------|--------------------|
E|-0----------------|------------------|------------------|--------------------|
 |
 | Guitar 2
e|-7------------7h9-|-7-------------7--|-9-------------9--|-6------------------|
B|-9------------9---|-7-------------7--|-9-------------9--|-7------------------|
G|-9----------------|-8-------------8--|-9-------------9--|-6------------------|  play 2x
D|-9----------------|-9-------------9--|-11------------11-|--------------------|
A|------------------|------------------|------------------|--------------------|
E|------------------|------------------|------------------|--------------------|

   Guitar 1 
e|------------------|------------------|------------------|--------------------|
B|--4---2-----------|------------------|-------5----------|---------0----------|
G|----------4---1---|--2---4---2---1---|---4/6------------|---------4----------|
D|------------------|------------------|------------------|-----6--------------|
A|------------------|------------------|------------------|--------------------|
E|------------------|------------------|------------------|--------------------|
 |
 | Guitar 2
e|-7------------7h9-|-7-------------7--|-9-------------9--|-6------------------|
B|-9------------9---|-7-------------7--|-9-------------9--|-7------------------|
G|-9----------------|-8-------------8--|-9-------------9--|-6------------------|  play 2x
D|-9----------------|-9-------------9--|-11------------11-|--------------------|
A|------------------|------------------|------------------|--------------------|
E|------------------|------------------|------------------|--------------------|

e|------------------|------------------|------------------|--------------------|-0-------------|
B|------------------|------------------|------------------|--------------------|-0-------------|
G|-4-----------4h6--|------------------|------------------|-4------------------|-3-------------|
D|------------------|-6----------------|-7-------------7--|--------------------|-4-------------|
A|------------------|------------------|------------------|--------------------|---------------|
E|------------------|------------------|------------------|--------------------|---------------|
 |
 | Guitar 2
e|-7------------7h9-|-7-------------7--|-5-------------5--|-0---------------0--|-2-------------|
B|-9------------9---|-7-------------7--|-5-------------5--|-0---------------0--|-2-------------|
G|-9----------------|-8-------------8--|-6-------------6--|-1---------------1--|-3-------------|
D|-9----------------|-9-------------9--|-7-------------7--|-2---------------2--|-4-------------|
A|------------------|------------------|------------------|--------------------|---------------|
E|------------------|------------------|------------------|--------------------|---------------|


Repeat Verse



[Bridge]
e|-5----------------|-----------------|-0----------------|--------------------|
B|-5----------------|-----------------|-0----------------|--------------------|
G|-6----------------|-----------------|-3----------------|--------------------|
D|-7----------------|-----------------|-4----------------|--------------------|
A|-7----------------|-----------------|-4----------------|--------------------|
E|-5----------------|-----------------|-2----------------|--------------------|


[Solo]
   Rhythm plays every 4 bars:  A      E  F#
 
   play line 2x
e|-------------------------|-------------------------|--------------------------|-------------------------|
B|-------------------------|----------------------12-|-11-----------------------|-------------------------|
G|-------------------------|----------------8-10-----|----11--------------------|-------------------------|
D|-------------------------|-------------9-----------|-------13-----------------|-------------------------|
A|-----4-----4-----4-----4-|-------7---9-------------|----------14-13--14-13----|-6---6-6-----------------|
E|-5-----7-----5-----7-----|-5---9-------------------|-----------------------14-|-----------7-9---9-9---7-|


e|-------------------------|-------------------------------19-|-18-----------------------------|
B|-------------------------|-------------------17/19-17h19----|-----19---19--------------------|
G|-------------------------|------------14/16-----------------|--------18--18------------------|
D|----11----11----11----11-|-----11/14------------------------|----------------13-16--15h16p15-|
A|-12----12----12----12----|-12-------------------------------|--------------------------------|
E|-------------------------|----------------------------------|--------------------------------|

e|-------------------------|-----------------------|---------------------------|---------------------|
B|-------------------------|-----------------------|---------------------------|---------------------|
G|-------------------------|-----------------------|---------------------------|-15--\14--\13--\12---|
D|-------------16h18-16h18-|-19--------------18h19-|-18------------16h18-16h18-|---------------------|
A|-16h18-16h18-------------|-----------------------|---------------------------|---------------------|
E|-------------------------|-----------------------|---------------------------|---------------------|

e|------------------------|
B|------------------------|
G|-\11---\10---\9---\8----|
D|------------------------|
A|------------------------|
E|------------------------|


[Outro]

e|-4---------------4--|--------------------|-------------------|------------------|
B|-5---------------5--|-4---------------4--|-3--------------3--|-2-------------2--|
G|-4---------------4--|-4---------------4--|-2--------------2--|-2-------------2--|
D|-6---------------6--|-4---------------4--|-0--------------0--|-2-------------2--|
A|--------------------|-2---------------2--|-------------------|-0-------------0--|
E|--------------------|--------------------|-------------------|------------------|


Guitar 2 lick

e|-------------------------|-------------------------|-------------------------|----------------|
B|-9p7p0-9p7p0-9p7p0-9p7p0-|-9p7p0-9p7p0-9p7p0-9p7p0-|-9p7p0-9p7p0-0-----------|-2--2--2--2-----|
G|-------------------------|-------------------------|-------------------------|-2--2--2--2-----|
D|-------------------------|-------------------------|-------------------------|-2--2--2--2-----|
A|-------------------------|-------------------------|-------------------------|-0--0--0--0-----|
E|-------------------------|-------------------------|-------------------------|----------------|


[Short Solo]
e|-----------------|-----------------|-5---4-----------|--------------------|
B|-----------------|-5----7b9--------|---------7---5---|-----------------5--|
G|-----------4/6---|----6------------|-----------------|-4h6--------4h6-----|
D|-6---------------|-----------------|-----------------|--------------------|
A|-----------------|-----------------|-----------------|--------------------|
E|-----------------|-----------------|-----------------|--------------------|

e|-----------------|-----------------|-----------------|--------------------|
B|-5---------------|-3/4-------------|-----------------|--------------------|
G|---4h6---4-------|-----4-6---4-----|-6b7--6--4-------|--------------------|
D|-------6---------|---------6-------|------------6b7r-|-4---6--------------|
A|-----------------|-----------------|-----------------|---------7----------|
E|-----------------|-----------------|-----------------|--------------------|


Continue Outro Chords (2:09 - 2:29) - E  B  D  A

End on:
e|------------------------|
B|------------------------|
G|-4----------------------|
D|-4----------------------|
A|-2----------------------|
E|------------------------|            
Submit corrections


        Telephone  lessons Hard to play? Try these video lessons and learn fast Telephone  lessons
        
↑ Back to top | Tablatures and chords for acoustic guitar and electric guitar, ukulele, drums are parodies/interpretations of the original songs. You may use it for private study, scholarship, research or language learning purposes only