» » »

Twin Peaks - Stand In The Sand Tabs

Artists:  A B C D E F G H I J K L M N O P Q R S T U V W X Y Z # 

Stand In The Sand Tabs

(ver. 1) Click to play this song!
Twin Peaks
 Rating:
4.3/5 (23 votes)

 Stand In The Sand  lessons Tabs too difficult? Try these video lessons and learn fast
 
                [Solo]
e|-----------------------------------------------------------------|
B|-----------------------------------------------------------------|
G|-----------------------------14—13-------------------------------|
D|----------------14------------------14/16-----14-----------------|
A|--12-—12—-14/16----14/16--12---------------16----14—16/17--------|
E|-----------------------------------------------------------------|

e|-----------------------------------------------------------------|
B|-----—---15\14---------------------------------------------------|
G|-----16--------14/16---------------------------------------------|
D|--17-----------------16—-19—-14--16-----12\11--------------------|
A|-------------------------------------12-------12--12-------------|
E|-----------------------------------------------------12—-14--12--|

e|-------------------------14--15—-14—-15--14----------------------|
B|------------------14--17---------------------17—-17--------------|
G|---------------14------------------------------------------------|
D|------------14---------------------------------------------------|
A|--12—-14/16------------------------------------------------------|
E|-----------------------------------------------------------------|

e|------14---------------------------------------------------------|
B|--15------17—-15—-14--------14—-14-—14—-14-—14-—14---------------|
G|---------------------16—-14--------------------------------------|
D|-----------------------------------------------------------------|
A|-----------------------------------------------------------------|
E|-----------------------------------------------------------------|

[Outro lead]
Clay's Part
e|----------------------------------------------------------------|
B|----------------------------------------------------------------|
G|--14--14--------14---------14--14---------14—-------14----------|
D|---------16--14----14--16---------16--14-----14--16-------------|
A|----------------------------------------------------------------|
E|----------------------------------------------------------------|

e|----------------------------------------------------------------|
B|----------------------------------------------------------------|
G|--14--14--------14---------14--14---------14—-16—16b18r16-------|
D|---------16--14----14--16---------16--14------------------------|
A|----------------------------------------------------------------|
E|----------------------------------------------------------------|

e|----------------------------------------------------------------|
B|----------------------------------------------------------------|
G|--14--14--------14---------14--14---------14—-------14----------|
D|---------16--14----14--16---------16--14-----14--16-------------|
A|----------------------------------------------------------------|
E|----------------------------------------------------------------|

e|----------------------------------------------------------------|
B|----------------------------------------------------------------|
G|--14--14--------14---------14--14---------14—-16—16b18r16-------|
D|---------16--14----14--16---------16--14------------------------|
A|----------------------------------------------------------------|
E|----------------------------------------------------------------|

e|----------------------------------------------------------------|
B|----------------------------------------------------------------|
G|--14--14--------14---------14--14---------14—-------14--14—-----|
D|---------16--14----14--16---------16--14-----14--16-------------|
A|----------------------------------------------------------------|
E|----------------------------------------------------------------|            
Submit corrections


        Stand In The Sand  lessons Hard to play? Try these video lessons and learn fast Stand In The Sand  lessons
        
↑ Back to top | Tablatures and chords for acoustic guitar and electric guitar, ukulele, drums are parodies/interpretations of the original songs. You may use it for private study, scholarship, research or language learning purposes only