» » »

Twin Peaks - Ocean Blue Tabs

Artists:  A B C D E F G H I J K L M N O P Q R S T U V W X Y Z # 

Ocean Blue Tabs

(ver. 1) Click to play this song!
Twin Peaks
 Rating:
4.3/5 (6 votes)

 Ocean Blue  lessons Tabs too difficult? Try these video lessons and learn fast
 
                [Intro Riff]
e|--------------------------------------------------------------------------------------------------|
B|--------11----------------------------11----------------------------------------------------------|
G|--------------------------------------------------------------------------------------------------|
D|---11---------11------13--------11---------11h13--------------------------------------------------|
A|--------------------------------------------------------------------------------------------------|
E|--------------------------------------------------------------------------------------------------|

[x4]

[Verse Riff] 
(Main Theme)
e|--------------------------------------------------------------------------------------------------|
B|-------14-----------------------------------------------------------------------------------------|
G|--11--------11-------------11h13----13b15---13---12-----------------------------------------------|
D|-------------------11h13-------------------------------13-----------------------------------------|
A|--------------------------------------------------------------11/13----11---10--------------------|
E|--------------------------------------------------------------------------------------------------|

[x4]

[Verse]
I've got a wreck of emotion
I have a terrible notion fixed on you?

e|--------------------------------------------------------------------------------------------------|
B|--------------------------------------------------------------------------------------------------|
G|--------------------------------------------------------------------------------------------------|
D|----9---9---9---9---9---9---9-------8-----6-------------------------------------------------------|
A|----9---9---9---9---9---9---9-------8-----6-------------------------------------------------------|
E|----7---7---7---7---7---7---7-------6-----4-------------------------------------------------------|

And everything you do.

[Verse Riff] 
(Main Theme)
e|--------------------------------------------------------------------------------------------------|
B|-------14-----------------------------------------------------------------------------------------|
G|--11--------11-------------11h13----13b15---13---12-----------------------------------------------|
D|-------------------11h13-------------------------------13-----------------------------------------|
A|--------------------------------------------------------------11/13----11---10--------------------|
E|--------------------------------------------------------------------------------------------------|

[x4]

I made a magical potion
Of perfect words in the ocean blue for you?

e|--------------------------------------------------------------------------------------------------|
B|--------------------------------------------------------------------------------------------------|
G|--------------------------------------------------------------------------------------------------|
D|----9---9---9---9---9---9---9-------8-----6-------------------------------------------------------|
A|----9---9---9---9---9---9---9-------8-----6-------------------------------------------------------|
E|----7---7---7---7---7---7---7-------6-----4-------------------------------------------------------|

I hope you think it's cool.

[Chorus Riff]
e|--------------------------------------------------------------------------------------------------|
B|---------11---------11----------------------------------------------------------------------------|
G|---------------10---------------------------------------------------------------------------------|
D|-----13-------------------------------------------------------------------------------------------|
A|--------------------------------------------------------------------------------------------------|
E|--------------------------------------------------------------------------------------------------|

[x24]

(This plays through the entire chorus and the chords that return to the verse riff (main theme) 
which re-enters at 1:37)

[Chorus]
I've been waiting for the longest time
I've been waiting for the longest time, oh?
I've been waiting for the longest time
For you?

e|--------------------------------------------------------------------------------------------------|
B|--------------------------------------------------------------------------------------------------|
G|--------------------------------------------------------------------------------------------------|
D|----9---9---9---9---9---9---9-------8-----6-------------------------------------------------------|
A|----9---9---9---9---9---9---9-------8-----6-------------------------------------------------------|
E|----7---7---7---7---7---7---7-------6-----4-------------------------------------------------------|

[Verse Riff] 
(Main Theme)
e|--------------------------------------------------------------------------------------------------|
B|-------14-----------------------------------------------------------------------------------------|
G|--11--------11-------------11h13----13b15---13---12-----------------------------------------------|
D|-------------------11h13-------------------------------13-----------------------------------------|
A|--------------------------------------------------------------11/13----11---10--------------------|
E|--------------------------------------------------------------------------------------------------|

[x4]

[Verse]

I'm sick of all this commotion
And glances of eyes from across the room
[And it's dragged on and on?] ?

e|--------------------------------------------------------------------------------------------------|
B|--------------------------------------------------------------------------------------------------|
G|--------------------------------------------------------------------------------------------------|
D|----9---9---9---9---9---9---9-------8-----6-------------------------------------------------------|
A|----9---9---9---9---9---9---9-------8-----6-------------------------------------------------------|
E|----7---7---7---7---7---7---7-------6-----4-------------------------------------------------------|

For so many weeks now.

[Chorus Riff]
e|--------------------------------------------------------------------------------------------------|
B|---------11---------11----------------------------------------------------------------------------|
G|---------------10---------------------------------------------------------------------------------|
D|-----13-------------------------------------------------------------------------------------------|
A|--------------------------------------------------------------------------------------------------|
E|--------------------------------------------------------------------------------------------------|

[x24]

I've been waiting for the longest time
I've been waiting for the longest time, oh?
I've been waiting for the longest time
For you?            
Submit corrections


        Ocean Blue  lessons Hard to play? Try these video lessons and learn fast Ocean Blue  lessons
        
↑ Back to top | Tablatures and chords for acoustic guitar and electric guitar, ukulele, drums are parodies/interpretations of the original songs. You may use it for private study, scholarship, research or language learning purposes only