Home » T » Turtle Shell Tanks »

Turtle Shell Tanks - Happy Together Bass

Artists:  A B C D E F G H I J K L M N O P Q R S T U V W X Y Z # 

Happy Together Bass

(ver. 1) Click to play this song!
Turtle Shell Tanks
Intro:(Play Quietly) 
    .        .
G|----------------|  |-----------------
D|--4--------4----|  |-----------------
A|-4--------4-----|  |-----------------
E|----------------|  |-2-2-2-2-2-2-2-2-

Verse 1:
G|----------------------------------------------------------------------
D|----------------------------------------------------------------------
A|------------------7-7-7-7-7-7-7-7---5-5-5-5-5-5-5-5---4-4-4-4-4-4-4-4-
E|-2-2-2-2-2-2-2-2/-----------------------------------------------------

Verse 2:
G|---------------------------------------------------------------------
D|---------------------------------------------------------------------
A|-----------------------------------5-5-5-5-5-5-5-5---4-4-4-4-4-4-4-4-
E|-2-2-2-2-2-2-2-2---0-0-0-0-0-0-0-0-----------------------------------

Chorus 1:
G|-----------------------------------------------------------------
D|-----------------------------------------------------------------
A|-9-9-9-9---------9-9-9-9---------9-9-9-9---------9-9-9-9---------
E|---------9-9-9-9---------5-5-5-5---------9-9-9-9---------5-5-5-5-

Repeat Verse 2:

Repeat Chorus 1:

Repeat Verse 2:

Chorus 2:
G|------------------------------------------------------------------------
D|-------------------------7-7--------------------------------------------
A|-9-9-9-9--------9-9-9-9---------9-9-9-9----------9-9-9-9----------------
E|---------9-9-9-9------------5-5---------9-9-9-9---------9-9-9-9-9-9-9-9-

Verse 4:
G|----------------------------------------------------------------------
D|-------------------------------------------------------------4-4-4-4-
A|-----------------------------------5-5-5-5-5-5-5-5---4-4-4-4---------
E|-2-2-2-2-2-2-2-2---0-0-0-0-0-0-0-0------------------------------------

Outro:
G|-----------------------------------------------------------------------
D|---------4-4-4-4---------4-4-4-4--------4-4-4-4---------4-4-4-4--------
A|-4-4-4-4---------4-4-4-4--------4-4-4-4---------4-4-4-4--------4-4-4-4-
E|-----------------------------------------------------------------------

G|-----------------------------------------------------
D|--4-4-4-4---------4-4-4-4--------4-4-4-4-------------
A|-4--------4-4-4-4--------4-4-4-4---------4-4-4-4---9-
E|-----------------------------------------------------
            
Submit corrections

↑ Back to top | Tablatures and chords for acoustic guitar and electric guitar, ukulele, drums are parodies/interpretations of the original songs. You may use it for private study, scholarship, research or language learning purposes only