» » »

Tsunami Bomb - 3 Days 1000 Nights Tabs

Artists:  A B C D E F G H I J K L M N O P Q R S T U V W X Y Z # 

3 Days 1000 Nights Tabs

(ver. 1) Click to play this song!
Tsunami Bomb
 Rating:
4/5 (4 votes)
                Standard Tuning- EADGBe

p- pull off

Intro
E||------------------------|---------------------|
B||------------------------|---------------------|
G||------------------------|---------------------|
D||------------------------|---------------------|
A||--5-5-8p5----4-4-7p4----|--5-5-8p5----4---0---|
E||----------5----------5--|----------5----------|


"You've crossed into.."
Verse 1
E||----------------------------|
B||----------------------------|
G||----------------------------|
D||----------------------------|
A||--5--5--8p5----4--4--7p4----| (keep repeating)
E||------------5------------5--|

"This is an intrusion.."
0:37
Chorus
E||----------------------------------|
B||----------------------------------|
G||--7-7-7-7---------7-7-7-7---------|
D||--7-7-7-7-8-8-8-8-7-7-7-7-8-8-7-7-|
A||--5-5-5-5-8-8-8-8-5-5-5-5-8-8-7-7-|
E||--5-5-5-5-6-6-6-6-5-5-5-5-6-6-5-5-| x2

0:47
E||----------------------------------|
B||----------------------------------|
G||--7-7--7-7------------------------|
D||--7-7--7-7--8-8--8-8--7-7-7-7-7-7-|
A||--5-5--5-5--8-8--8-8--7-7-7-7-7-7-|
E||--5-5--5-5--6-6--6-6--5-5-5-5-5-5-|

1:05
Verse 2
E||----------------------------|
B||----------------------------|
G||----------------------------|
D||----------------------------|
A||--5--5--8p5----4--4--7p4----|
E||------------5------------5--|


E||----------------------------------|
B||----------------------------------|
G||--7-7-7-7---------7-7-7-7---------|
D||--7-7-7-7-8-8-8-8-7-7-7-7-8-8-7-7-|
A||--5-5-5-5-8-8-8-8-5-5-5-5-8-8-7-7-| x2
E||--5-5-5-5-6-6-6-6-5-5-5-5-6-6-5-5-| 


E||----------------------------------|
B||----------------------------------|
G||--7-7--7-7------------------------|
D||--7-7--7-7--8-8--8-8--7-7-7-7-7-7-|
A||--5-5--5-5--8-8--8-8--7-7-7-7-7-7-|
E||--5-5--5-5--6-6--6-6--5-5-5-5-5-5-|

bass solo
repeat chorus

Outro
3:17
E||-------------------------------------------------|
B||-------------------------------------------------|
G||-------------------------------------------------|
D||-------------------------------------------------|
A||--5--5--8p5----4--4--7p4-----5--5--8p5----4------|
E||------------5------------5-------------5---------|


E||--------------------------------------||
B||--------------------------------------||
G||--------------------------------------||
D||--------------------------------------||
A||--5--5--8p5---4--4--7p4--------4-7-5--||
E||------------5-----------5--5-5--------||

You've crossed into our territory
Take caution and care, traps concealed everywhere
We know you're here we'll take our time
We like to slit throats and it's not such a crime

This is a intrusion
No time for your confusion
You're done for, no escape
Your action just sealed your fate
Oh no! You're not free to go. Yo Ho!

We infiltrate your brain
Control settles in, you can't try to resist
Helpless now, there's no way out
There is no escape you belong to us now.
            
Submit corrections

↑ Back to top | Tablatures and chords for acoustic guitar and electric guitar, ukulele, drums are parodies/interpretations of the original songs. You may use it for private study, scholarship, research or language learning purposes only