Home » T » Tsol »

Tsol - No Way Out Tabs

Artists:  A B C D E F G H I J K L M N O P Q R S T U V W X Y Z # 

No Way Out Tabs

(ver. 2) Click to play this song!
Tsol
NO WAY OUT - TSOL



Figure the rythem out yourself
Thanks goodvandal

play 2 times
A--------------------------------|--------------------------------|
B--------------------------------|--------------------------------|
G--------------------------------|--------------------------------|
D----0--3--2--0------------------|----0--3--2--0-------------5-5-5|
A------------------3--5--4--3----|------------------3--5--4-------|
E--------------------------------|--------------------------------|

4xs
A----------------------------------------------------------------|
B----------------------------------------------------------------|
G----------------------------------------------------------------|
D----7-7-7-7--5-5-5-5---12-12-12-12-10-10-10-10------------------|
A----5-5-5-5--3-3-3-3---10-10-10-10--8--8--8--8------------------|

4xs
E------------------------|
A------------------------|
B------------------------|
G------------------------|
D----9--8--9--8--9--7----|
A----7--6--7--6--7--5----|
E------------------------|

4xs
A-----------------------------------------------------------------|
B-----------------------------------------------------------------|
G-----------------------------------------------------------------|
D----7-7-7-7--5-5-5-5---12-12-12-12-10-10-10-10-------------------|
A----5-5-5-5--3-3-3-3---10-10-10-10--8--8--8--8-------------------|

4xs
E------------------------|
A------------------------|
B------------------------|
G------------------------|
D----9--8--9--8--9--7----|
A----7--6--7--6--7--5----|
E------------------------|

2xs
A------------------------------------------------------------------|
B------------------------------------------------------------------|
G------------------------------------------------------------------|
D----7-7-7-7--5-5-5-5---12-12-12-12-10-10-10-10--------------------|
A----5-5-5-5--3-3-3-3---10-10-10-10--8--8--8--8--------------------|

Solo sounds right
E-----10----8----15---13----10----8----15---13---------------------|
A------------------------------------------------------------------|
B------------------------------------------------------------------|
G------------------------------------------------------------------|
D------------------------------------------------------------------|
A------------------------------------------------------------------|
E------------------------------------------------------------------|

4xs
E------------------------|
A------------------------|
B------------------------|
G------------------------|
D----9--8--9--8--9--7----|
A----7--6--7--6--7--5----|
E------------------------|
            
Submit corrections

↑ Back to top | Tablatures and chords for acoustic guitar and electric guitar, ukulele, drums are parodies/interpretations of the original songs. You may use it for private study, scholarship, research or language learning purposes only