Home » T » Tsol »

Tsol - Abolish Government Tabs

Artists:  A B C D E F G H I J K L M N O P Q R S T U V W X Y Z # 

Abolish Government Tabs

(ver. 2) Click to play this song!
Tsol
3x
E-----------------------------------------------------|---------------|
B-----------------------------------------------------|---------------|
G----------------14-15-14-----------------------------|---------------|
D----9-9-9-9------------------------------------------|--9999--11-10--|
A----7-7-7-7-----12-13-12-----------------------------|--7777---9--8--|
E-----------------------------------------------------|---------------|


E-----------------------------------------------------|---------------|
B-----------------------------------------------------|---------------|
G-----------------------------------------------------|---------------|
D----9-9-9-9-------14-15-14---------------------------|--9999--11-10--|
A----7-7-7-7-------12-13-12---------------------------|--7777---9--8--|
E-----------------------------------------------------|---------------|


E-----------------------------------------------------|---------------|
B-----------------------------------------------------|---------------|
G-----------------------------------------------------|---------------|
D----9-9-9-9----14-15-14------------------------------|--9999--11-10--|
A----7-7-7-7----12-13-12------------------------------|--7777---9--8--|
E-----------------------------------------------------|---------------|


 14x
E-----------|
B-----------|
G----14-----|
D-----------|
A----12-----|
E-----------|


 2x
E-------------------------|
B-------------------------|
G-------------17-17-------|
D-------999---------------|
A---77--777---15-15-------|
E---55--------------------|
 

 4x               
E------------------------------|
B------------------------------|
G------------------------------|
D--------9-9-9-----------------|
A---7-7--7-7-7--10---10--10----|
E---5-5----------8----8--8-----|
PM.........................|

 
E-----------------------------------------|
B-----------------------------------------|
G-----------------------------------------|
D--------5-5--7-7-------------------------|
A---5-5--3-3--5-5----9-9--7-7-9-9-10-10---|
E---3-3--------------7-7--5-5-7-7--8--8---|


 2x
E---------------------------|
B---------------------------|
G-------------17-17---------|
D-------999-----------------|
A---77--777---15-15---------|
E---55----------------------|


 4x
E---------------------------|
B---------------------------|
G---------------------------|
D--------9-9-9--------------|
A---7-7--7-7-7--10--10-10---|
E---5-5----------8---8--8---|


E-----------------------------------------|
B-----------------------------------------|
G-----------------------------------------|
D--------5-5--7-7-------------------------|
A---5-5--3-3--5-5----9-9--7-7-9-9-10-10---|
E---3-3--------------7-7--5-5-7-7--8--8---|
            
Submit corrections

↑ Back to top | Tablatures and chords for acoustic guitar and electric guitar, ukulele, drums are parodies/interpretations of the original songs. You may use it for private study, scholarship, research or language learning purposes only