Home » T » True Faith »

True Faith - Huwag Na Lang Kaya Tabs

Artists:  A B C D E F G H I J K L M N O P Q R S T U V W X Y Z # 

Huwag Na Lang Kaya Tabs

(ver. 2) Click to play this song!
True Faith
Standard Tuning

intro riff
e|--------------------------|
B|--------------------------|
G|--------------------------|
D|--------------------------|
A|-------0------------------|
E|---0h2--------------------|


guitar solo
e|--------------------------|
B|--------------------------|
G|---------1-2-4-4/6--------|
D|-------2------------------|
A|---0-4--------------------|
E|--------------------------|

 
e|---5\4--------------------|
B|--------------------------|
G|---2\1--------------------|
D|--------------------------|
A|--------------------------|
E|--------------------------|

 
e|---9-10-10/12-------------|
B|--------------------------|
G|---6--7--7/9--------------|
D|--------------------------|
A|--------------------------|
E|--------------------------|

 
e|---9\7-7\5-5-7-7/9--------|
B|--------------------------|
G|---6\4-4\2-2-4-4/6--------|
D|--------------------------|
A|--------------------------|
E|--------------------------|

 
e|--------------------------|
B|---------------7-9-9/10---|
G|-------6-7-7/9------------|
D|---7-9--------------------|
A|--------------------------|
E|--------------------------|


            
Submit corrections

↑ Back to top | Tablatures and chords for acoustic guitar and electric guitar, ukulele, drums are parodies/interpretations of the original songs. You may use it for private study, scholarship, research or language learning purposes only