» » »

Trivium - Entrance Of The Conflagration Tabs

Artists:  A B C D E F G H I J K L M N O P Q R S T U V W X Y Z # 

Entrance Of The Conflagration Tabs

(ver. 1) Click to play this song!
Trivium
 Rating:
4/5 (4 votes)

 Entrance Of The Conflagration lessons Tabs too difficult? Try these video lessons and learn fast
 
                ENTRANCE OF THE CONFLAGRATION BY TRIVIUM
MADE TO TEXT BY ZACK KNIGHT...

note: the real credit goes to Lukige cause this is the solo to his tab..all im doin is
putting it in text form...great job man...

Guitar One - Corey Beaulieu
Guitar Two - Matt Heafy


Here's the Rhythm part behind the solos pretty much the whole solo...
e|------------------------------------------------------------------------------------------|
B|------------------------------------------------------------------------------------------|
G|--5-7-7---7---5--5---5----4-5-5-----5---4---5-----5-----4---------------------------------|
D|--5-7-7---7---5--5---5----5-5-5-----5---5---5-----5-----5---------------------------------|
A|-------0-0--0-----0-0--0-0------3-3---3-------3-3----3------------------------------------|
E|------------------------------------------------------------------------------------------|

Guitar One (just listen to song for timing)
e|--------------------------------------------------------------------------------------|
B|------5------------------------6--5-------------6--5----------------------------------|
G|--4-5---7--5--4--5-4-------4-5------7--5--7--5----------------------------------------|
D|---------------------7-5-7------------------------------------------------------------|
A|--------------------------------------------------------------------------------------|
E|--------------------------------------------------------------------------------------|

e|-----------------------------------------------------------------------------------------------|
B|----------------6--5--------5--6--/10--10--10--8--8--13--13------15b---------------------------|
G|--7--5--7--5--5-----7--5--7--------------------------------------------------------------------|
D|-----------------------------------------------------------------------------------------------|
A|-----------------------------------------------------------------------------------------------|
E|-----------------------------------------------------------------------------------------------|

e|---------------------------------------------------------------------------------------------------------------------------|
B|--15--15--15--15--15-15-15-15--13-15--13h15p13-12--12h13p12---10h13p10------17---------------------------------------------|
G|-----------------------------------------------------------12--------------------------------------------------------------|
D|---------------------------------------------------------------------------------------------------------------------------|
A|---------------------------------------------------------------------------------------------------------------------------|
E|---------------------------------------------------------------------------------------------------------------------------|

e|-------------------------------------5-8-12-8--8-12-17-12------------------------------------|
B|--17-17171717151515-10101010-8-8-8--5--------10----------13-------------------13-12----------|
G|-----------------------------------5-----------------------14----------------------14-12-14--|
D|----------------------------------7--------------------------14---------14-------------------|
A|---------------------------------------------------------------15--12-15----12---------------|
E|---------------------------------------------------------------------------------------------|

Guitar Two (shreddin time)
e|--17--17--17-----17171717171720172017-2220172017--2017--17201717------2017--17-------------------------------------------|
B|----20b--20b--20b-------------------------------20----20--------201720--------20--2017--202017--20-----------------------|
G|--------------------------------------------------------------------------------------19------19--1917--17--19b-19-17----|
D|------------------------------------------------------------------------------------------------------19-------------19--|
A|-------------------------------------------------------------------------------------------------------------------------|
E|-------------------------------------------------------------------------------------------------------------------------|

e|---------------------------------------------------------------------------------------------------------------|
B|---------------------------------------------------------------------------------------------------------------|
G|--17--17-16--16-14--14-12--12-10--10-10---10-9-9-9--10p9h10p9--------------------------------------------------|
D|----19-----17-----15-----14-----12---------------------------12--10--------------------------------------------|
A|---------------------------------------------------------------------------------------------------------------|
E|---------------------------------------------------------------------------------------------------------------|

e|--------------------------------------------------------------------------------10--------------1012--13--|
B|----------------------------------------------------------------------------1012--13--121012--13----------|
G|-------------------------------------------------------------10-------------------------------------------|
D|-----------------------------------9------------910-12-910-12--12-10910-12--------------------------------|
A|--------9-------------810-12-810-12-12--10810-12----------------------------------------------------------|
E|--7-8-10-10--8-7-8--10------------------------------------------------------------------------------------|

e|--13--12--10----------12--10------------10---------------------------------------------------|
B|------------13--12--10------13--12--10----13--12--10-----------------------------------------|
G|--------------------------------------10------------10--9-----10-----------------------------|
D|---------------------------------------------------------------------------------------------|
A|---------------------------------------------------------------------------------------------|
E|---------------------------------------------------------------------------------------------|

END

| /  slide up
| \  slide down
| h  hammer-on
| p  pull-off
| ~  vibrato
| +  harmonic
| x  Mute note
===============================================================================
            
Submit corrections


        Entrance Of The Conflagration lessons Hard to play? Try these video lessons and learn fast Entrance Of The Conflagration lessons
        
↑ Back to top | Tablatures and chords for acoustic guitar and electric guitar, ukulele, drums are parodies/interpretations of the original songs. You may use it for private study, scholarship, research or language learning purposes only