» » »

Trivium - Dying In Your Arms Tabs

Artists:  A B C D E F G H I J K L M N O P Q R S T U V W X Y Z # 

Dying In Your Arms Tabs

(ver. 3) Click to play this song!
Trivium
 Rating:
4/5 (4 votes)

 Dying In Your Arms lessons Tabs too difficult? Try these video lessons and learn fast
 
                Complete solo for Dying in your Arms. Good song but not with the "real" trivium sound.
Havent seen the solo in tab form so here it is for you. Enjoy.
Pretty fast picking but after a bit of practice you'll get it down.

Trivium - Dying in Your Arms - Cd - Ascendancy

   Part 1 of Solo
E|----------------------------------------------------------------------|
B|----------------------------------------------------------------------|
G|-17-17-17\14-16-16-16\12/14-14-14-9-7-let ring-------------7-9-9------|
D|------------------------------------------------9---9h10p9------------|
A|----------------------------------------------------------------------|
D|----------------------------------------------------------------------|

                                                            Part 2 of Solo
E|---------12-10----------------15-13-12-------------------------------------|
B|----13---------------15---------------15h17p15----------10-8-10-12-13-15---|
G|------14-----------------16------------------------------------------------|
D|-14----------------------------------------------17~-----------------------|
A|---------------------------------------------------------------------------|
D|---------------------------------------------------------------------------|


E|-12----------12----12-short-pause-----------12-------12-----10---------10--|
B|----13----13----13-----------------13----13----13--------------12----12--12|
G|-------14-----------------------------14----------14--------------12-------|
D|---------------------------------------------------------------------------|
A|---------------------------------------------------------------------------|
D|---------------------------------------------------------------------------|


E|-10-short-pause-----------10-------10----8----------8----8-short-pause-----|
B|-----------------12----12----12------------10----10---10-------------------|
G|--------------------12----------12------------10---------------------------|
D|---------------------------------------------------------------------------|
A|---------------------------------------------------------------------------|
D|---------------------------------------------------------------------------|


E|----------8-------8-------13-12-10---12-10------10-------------------------|
B|-10----10---10---------------------13------13-12---13-12-10-13-12-10-------|
G|----10---------10----------------------------------------------------12----|
D|---------------------------------------------------------------------------|
A|---------------------------------------------------------------------------|
D|---------------------------------------------------------------------------|

\=slide
~=vibrato
h=hammer on
p=power off

Part one of Solo    X1
Part two of Solo    X2
            
Submit corrections


        Dying In Your Arms lessons Hard to play? Try these video lessons and learn fast Dying In Your Arms lessons
        
↑ Back to top | Tablatures and chords for acoustic guitar and electric guitar, ukulele, drums are parodies/interpretations of the original songs. You may use it for private study, scholarship, research or language learning purposes only