» » »

Trivium - Detonation Tabs

Artists:  A B C D E F G H I J K L M N O P Q R S T U V W X Y Z # 

Detonation Tabs

(ver. 3) Click to play this song!
Trivium
 Rating:
4/5 (4 votes)

 Detonation lessons Tabs too difficult? Try these video lessons and learn fast
 
                --------------------------------------------------------------------------
                Detonation (not complete) - Trivium
--------------------------------------------------------------------------

Tuning:E standard

Intro riff 2 guitars
e|-------------------------------------------------------------|
B|-------------------------------------------------------------|
G|--4----3----4----3--6-6---4----3-----------------------------|
D|--2----1----2----1--4-4---2----1-----------------------------|
A|--2----1----2----1--4-4---2----1------1-4-1-------3-6-3------|
E|----00--------00------------00----0-3-------3-2-5-------5----|
 |    ..        ..            ..    . .         . .
e|-------------------------------------------------------------|
B|-------------------------------------------------------------|
G|--4----6----4----6--9-9----4----6----------------------------|
D|--x----x----x----x--x-x----x----x----------------------------|
A|--2----4----2----4--7-7----2----4------4-7-4-------6-9-6-----|
E|----00--------00-------------00----3-6-------6-5-8-------8---|
      ..        ..             ..    . .         . .
Main riff (played by both guitars)
e|--------------------------------------------------------------------------
B|--------------------------------------------------------------------------
G|--------------------------------------------------------------------------
D|1----1----1----2p1-1-1----1----5\--------------1----1----1----2----3-6-4-7
A|1----1----1----2p1-1-1----1----5\------2-----1-1----1----1----2----1-4-2-5
E|--00---00---00---------00---00-----2-3---0-2-----00---00---00---00-1-4-2-5
     ..   ..   ..         ..   ..     . .   . .     ..   ..   ..   ..

e|--------------------------|   |----------|
B|--------------------------|   |----------|
G|-4-----4/9-----6-----6/10-|   |-4-----7--|
D|-x-----x-x-----x-----x-x--|x3 |-2-----5--|
A|-2-----2/7-----3-----3/8--|   |-2-----5--|
E|---000-----000---000------|   |----------|
Last riff
e|------------------------------------------------------------------------|
B|------------------------------------------------------------------------|
G|--------------------------------------4---------------------------------|
D|11-11---12---14--11---------6-6---7---x--6---------6-6---7---9-6--------|
A|-9--9-9--9-9--9--9--9999999-4-4-4-4-4-4--4-4444444-5-5-5-5-5-5-5-5555555|
E|------------------------------------------------------------------------|
        .    .        .......     .   .      .......     .   .     .......
e|---------------|
B|---------------|
G|-2--2----------|
D|-2--2---2--2---|
A|-0--0----------|
E|--------4--4---|

Now i know some of its not right but it sounds similar enough to me so hey lol .

| /  slide up
| \  slide down
| h  hammer-on
| p  pull-off
| ~  vibrato
| +  harmonic
| x  Mute note
==========================================================================
            
Submit corrections


        Detonation lessons Hard to play? Try these video lessons and learn fast Detonation lessons
        
↑ Back to top | Tablatures and chords for acoustic guitar and electric guitar, ukulele, drums are parodies/interpretations of the original songs. You may use it for private study, scholarship, research or language learning purposes only