» » »

Trivium - Declaration Tabs

Artists:  A B C D E F G H I J K L M N O P Q R S T U V W X Y Z # 

Declaration Tabs

(ver. 1) Click to play this song!
Trivium
 Rating:
4/5 (4 votes)

 Declaration lessons Tabs too difficult? Try these video lessons and learn fast
 
                Tuning: Drop D (DADGBe)

This isn't the whole song, I tabbed it up to the solo. After that, it's hard to
hear exactly what the guitar's doing until it returns back to the main theme.
If you see any mistakes, email or comment so they can be corrected.


Intro (guitar 1)						Repeat	4x
e|---------------------------------------------------------------------------|
B|---------------------9-10-9------------------------------------------------|
G|-----9-----9-----9----------9--------------------------6-9-6-7-------------|
D|-6-7---6-7---6-7---9----------9-11-----------------7-9---------9-----------|
A|------------------------------------7-99-7-99-7-99-------------------------|
D|---------------------------------------------------------------------------|

Intro (guitar 2, comes in after guitar one plays the riff twice, played slowly)
e|---------------------------------------------------------------------------|
B|------------------------------------10-9-----------------------------------|
G|--------9-7-6----------------9-7-6-------9---------------------------------|
D|-6-7-6---------6-7~----6-7-6-----------------------------------------------|
A|---------------------------------------------------------------------------|
D|---------------------------------------------------------------------------|

Both guitars:
e|---------------------|
B|---------------------|
G|---11------13--------|
D|---------------------|
A|---9-------11--------|
D|---------------------|


Guitar 1 (very hard riff to play, and I'm pretty sure this isn't 100% right, but it's close)
								Repeat 2x
e|---------------------------------------------------------------------------|
B|---------------------------------------------------------------------------|
G|---------------------------------------------------------------------------|
D|---------------------------------------------------------------------------|
A|-4h5h7-------------5h7h8-------7h8h10--------8h9h11------------------------|
D|-------0000000000--------0000---------000000-------------------------------|



Both Guitars:
e|---------------------------------------------------------------------------|
B|---------------------------------------------------------------------------|
G|---------------------------------------------------------------------------|
D|--0h2-------------------2h4------------------------------------------------|
A|--------------------3h5----------------------------------------------------|
D|-------1111111111------------4444444444444---------------------------------|

Both guitars repeat the above parts twice. Then:


Both guitars:
e|--------------------------------------------------------------------------------|
B|--------------------------------------------------------------------------------|
G|--------------------------------------------------------------------------------|
D|-0-------------------7-6----------6-7-6-7--2/4--------2/4-----------------------|
A|-0-------------------5-4----------4-5-4-5--2/4--------2/4-----------------------|
D|-0-000000000000-4-00-----00000000----------2/4-444444-2/4-44444444--------------|



Guitar 1 then plays:
e|------------------------------------------------|
B|------------------------------------------------|
G|------------------------------------------------|
D|-------------4h5h7-------4h5h7-4h5h7--777777----|
A|-------4h5h7-------4h5h7------------------------|
D|-4h5h7------------------------------------------|
 |						  |
 |						  |
 | While guitar 2 plays:			  |
e|------------------------------------------------|
B|------------------------------------------------|
G|-------------------------------4h6p4--666666----|
D|-------------4h5h7-------4h5h7------------------|
A|-------4h5h7-------4h5h7------------------------|
D|-4h5h7------------------------------------------|

Repeat both these parts again.


Then it goes back to the part right after the intro and plays through to here.
Then you play: (The strumming might not be entirely right, but these are the chords)


e|------------------------------------------------------------------------------|
B|------------------------------------------------------------------------------|
G|--11-11-11-11-11-11-11-11-11-11-9-9-9-9-9-9-9-13-13-13-14-14-14-14------------|
D|------------------------------------------------------------------------------|
A|--9-9-9-9-9-9-9-9-9-9-9-9-9-9-9-7-7-7-7-7-7-7-11-11-11-12-12-12-12------------|
D|------------------------------------------------------------------------------|

e|------------------------------------------------------------------------------|
B|------------------------------------------------------------------------------|
G|--18-18-18-18-----18-18-18-18-18----18-18-18--------9-----9-----9-----9-----9-|
D|------------------------------------------------6-7---6-7---6-7---6-7---6-7---|
A|--16-16-16-16-----16-16-16-16-16----16-16-16----------------------------------|
D|------------------------------------------------------------------------------|

Repeat that whole riff again, then some easy chords:


e|--------------------|
B|--------------------|
G|--------------------|
D|-0---4---0---7------|
A|-0---4---0---7------|
D|-0---4---0---7------|



Then it goes into the solo, and I'm not entirely sure about the rest of the song from 
this point. It eventually goes into a 

e|------------------------------------------------------|
B|------------------------------------------------------|
G|------------------------------------------------------|
D|------------------------------------------------------|
A|------------------------------------------------------|
D|--55555666644--55566644---555555566666444--55566644---|


and then back into the main part. 





| /  slide up
| \  slide down
| h  hammer-on
| p  pull-off
| ~  vibrato
| +  harmonic
| x  Mute note
            
Submit corrections


        Declaration lessons Hard to play? Try these video lessons and learn fast Declaration lessons
        
↑ Back to top | Tablatures and chords for acoustic guitar and electric guitar, ukulele, drums are parodies/interpretations of the original songs. You may use it for private study, scholarship, research or language learning purposes only