» » »

Trivium - Decieved Tabs

Artists:  A B C D E F G H I J K L M N O P Q R S T U V W X Y Z # 

Decieved Tabs

(ver. 1) Click to play this song!
Trivium
 Rating:
4/5 (4 votes)

 Decieved lessons Tabs too difficult? Try these video lessons and learn fast
 
                TRIVIUM- THE DECIEVED
tuning- D A D G B E for both guitars
btw, do not comment and tell me different playings like
enharmonic equivalents or different configurations.
if you find an easier way, good for you. this is right and its
how I play it lol. thx
Verse 1:
E|--------------------------------------------------|
B|o-------------------------------------------------|
G|--------------------------------------------------|
D|-4---------------------------4--------------------|
A|o4---------------------------4--------------------|
D|-4-444-444-444-444-444-4-6-7-4-444-444-444-07-642-|
Pm.  ... ... ... ... ...         ... ... ...
E|------------------------------------------------|
B|-----------------------------------------------o|
G|------------------------------------------------|
D|-4---------------------------4-------------0-~--|
A|-4---------------------------4-------------0-~-o|
D|-4-444-444-444-444-444-4-6-7-4-444-444-444-0-~--|
Pm.  ... ... ... ... ...         ... ... ...
Verse 2(this part is cool):
E|-This-is-the-harmony-bit,-sorry-a-little-unclear-|
B|o------------------------------------------------|
G|-------------------------------------------------|
D|---------Gtr.1=2h4p2----Gtr.2=4--4-6-------------|
A|o--------Gtr.2=6h7p6----Gtr.1=5--5-7-------------|
D|-2p0-0000000000-----2p0-000000-00-0-4v-444444----|
Pm.    ..........         ...... .. .    ......
E|Here-Gtr.1-plays-bottom-notes-and-Gtr.2-----------|top-ones\
B|---------------------------------3----------------|
G|-same-here---------6-4-2---2-4-6-4-->>>>>>>>>>>>>>\
B|-----------------------------------------141517---|
G|----------------6-7p6-9~-11h13p11~-131416141618---|/
D|---6-7-6--6-7-9--------------------141618---------|
A|-9~------9----------------------------------------|
D|--------------------------------------------------|

E|-/21~-19-17-19~---------------17-/21~22-19~------|
B|-/22~-21-19-21~------17-19-21-19-/22~24-21~------|
G|---------------18-19-18-19-21--------------------|
D|---------------19-21-----------------------------|
A|-------------------------------------------------|
D|-------------------------------------------------|
Fast here, people:
E|-2117------172117-------172117------172117-------|
B|-----19--19------19---19------19--19------19-----|
G|-------18----------18-----------18----------18~--|
D|-------------------------------------------------|
A|-------------------------------------------------|
D|-------------------------------------------------|

E|-21-19-17----------------------------------------|
B|-22-21-19----------19~-19191919p17-17~-12-12-12--|
G|----------19-18-16-19~-19191919p18-18~-13-13-13--|
D|----------21-19-18-------------------------------|
A|-------------------------------------------------|
D|-------------------------------------------------|

E|------------------------------------------------|
B|-14-14-14-12-12-15-15-15-14-14-14-12-12---------|
G|-14-14-14-13-13-16-16-16-14-14-14-13-13-14~~~---|
D|----------------------------------------16~~~---|
A|------------------------------------------------|
D|------------------------------------------------|
Then play that verse 3 bit again like twice
then the next solo:(same rhythm riff as before)
E|Again,-gtr1-bottom-notes,-gtr2-tops=>21-19-17-----|
B|-------------------------------------22-21-19-----|
G|-9-----9-----67-13------13---------13--------1918-|
D|--7---7-7--79----11----11-11--111214---------2119-|
A|---979---97-------141214---1412-------------------|
D|--------------------------------------------------|
This part is really fast and hard to play:
E|-----1916------1714------1916------1714----------|
B|121415--17141517--15121415--17141517--15121415---|
G|-------------------------------------------------|
D|-------------------------------------------------|
A|-------------------------------------------------|
D|-------------------------------------------------|
Wb= whole step bend    harmonization again people-\
E|-14--14----14----14----14-----17h19p17-21~
            
Submit corrections


        Decieved lessons Hard to play? Try these video lessons and learn fast Decieved lessons
        
↑ Back to top | Tablatures and chords for acoustic guitar and electric guitar, ukulele, drums are parodies/interpretations of the original songs. You may use it for private study, scholarship, research or language learning purposes only