» » »

Trivium - Ascendancy Tabs

Artists:  A B C D E F G H I J K L M N O P Q R S T U V W X Y Z # 

Ascendancy Tabs

(ver. 2) Click to play this song!
Trivium
 Rating:
4/5 (4 votes)

 Ascendancy lessons Tabs too difficult? Try these video lessons and learn fast
 
                Hey whats up guys i just noticed no one had anything anywear near accurate for this
solo, so i tabbed it myself. its 100% correct exzactly like Matt plays it. i didnt
include all the hammer on and pull offs cause thats common sence. Have fun with it,
its a really easy solo, if it comes off hard then start over your playing it wrong.

Band-Trivium
Song-Ascendancy the Solo
Tuning- Drop D


solo:
E||--------------------------------------------|
B||--14----14--12------12----------------------|
G||----------------14------14--13--14--13--11--|
D||--------------------------------------------|
A||--------------------------------------------|
E||--------------------------------------------|


                                                             
------------------------------------|-----------------------|
------------------------------------|-----------------------|
--13--11------11--------------------|-----------------------|
----------14------14--12--11--------|--9--------14----11----|
------------------------------------|-----------------------|
------------------------------------|-----------------------|


                                                                        
--------------------------|--------------------------------------------|
--------------------------|--15----15--14--12--14--12------12----------|
--------------------------|----------------------------14------14--13--|
------9--11--9------------|--------------------------------------------|
----------------12/-------|--------------------------------------------|
--------------------------|--------------------------------------------|


                                                                
------------------------------------|--14----14----17----16----|
------------------------------------|--------------------------|
--14--13--11--13--11----------------|--------------------------|
----------------------14--12--------|--------------------------|
------------------------------------|--------------------------|
------------------------------------|--------------------------|


------------------------------------------|
---14-15--(15)-15-14----------------------|
------------------------16--16-15-13------|
------------------------------------------|
------------------------------------------|
------------------------------------------|
                                                                         
                                                            
----------------------------|--------------------------14--|
----------------------------|--------------14--15--17------|
--13--------14h-13----------|------14--16------------------|
--------------------14/-16--|------------------------------|
----------------------------|------------------------------|
----------------------------|------------------------------|


   Tremelo   pick this part.                                             
--17-16-14-14-19-17-14-14-17-16-14-14-19-17-14-14-|
--------------------------------------------------|
--------------------------------------------------|
--------------------------------------------------|
--------------------------------------------------|
--------------------------------------------------|


                                                   
--17-16-14-14-19-17-14-14-17-16-14-14-19-17-14-14-|
--------------------------------------------------|
--------------------------------------------------|
--------------------------------------------------|
--------------------------------------------------|
--------------------------------------------------|


Right here is this little like sweeping thing Matt does that wasnt
even tabbed out in the other solo but if you listen its their.                       
--14~-------------------------------|
------------------------------------|
------------------------------16-18-|
---------------------16-18-19-------|
------------16-17-19----------------|
------------------------------------|

          
                                                                         
--------------------------------------------------|--------------------||
-----------------------------------------------17-|--19~---------------||
-----------------16-18-19-------------16-18-19----|--------------------||
--------16-18-19-------------16-18-19-------------|--------------------||
--17-19-------------------19----------------------|--------------------||
--------------------------------------------------|--------------------||
Thats it enjoy and please rate this.
            
Submit corrections


        Ascendancy lessons Hard to play? Try these video lessons and learn fast Ascendancy lessons
        
↑ Back to top | Tablatures and chords for acoustic guitar and electric guitar, ukulele, drums are parodies/interpretations of the original songs. You may use it for private study, scholarship, research or language learning purposes only