» » »

Trivium - And Sadness Will Sear Tabs

Artists:  A B C D E F G H I J K L M N O P Q R S T U V W X Y Z # 

And Sadness Will Sear Tabs

(ver. 2) Click to play this song!
Trivium
 Rating:
4/5 (12 votes)

 And Sadness Will Sear lessons Tabs too difficult? Try these video lessons and learn fast
 
                Trivium - And Sadness Will Sear
Recorded on "The Crusade" 
Composed by Matt Heafy

I saw that a few tabs tried this song but couldn't get the main riff
or solo right. I played it on my 7 string and this sounds on the money.
This was partially written by metalicatrivium.

Intro/ Chorus

E|------------------------------------------------------|
B|------------------------------------------------------|
G|----------------3--3----------------------------------|
D|--0-0-0-0-0-----4--4----------------------------------|
A|--2-2-2-2-2---x-4--4-------5-------2------------------|
E|--3-3-3-3-3---x-2--2-------7---7\--2--2-2-2-2-2-2-2---|
B|--3-3-3-3-3---x-2--2--2-2------0---0--0-0-0-0-0-0-0---|

E|--------------------------------------------------------|
B|--------------------------------------------------------|
G|-------------------------------------------------------o|
D|--0-0-0-0-0---------------------------------------------|
A|--2-2-2-2-2---x-0--0-------4--4--2-x-2-----------------o|
E|--3-3-3-3-3---x-2--2-------2--2--2-x-2--2-2-2-2-2-2-2---|
B|--3-3-3-3-3---x-2--2--2-2--0--0--0-x-0--0-0-0-0-0-0-0---|


VERSE (play 2x)
|----------------------|------------------------|
|----------------------|--------------------5---|
|-----------6----5-----|----------6---5---------|
|-4----7---------------|-4----7-----------------|
|----------------------|------------------------|
|----------------------|------------------------|
|----------------------|------------------------|

Play Intro/ Chorus
Play Verse again but only one time through

then on second half of Verse 2, play this 2x:
|-----------------------------------------------------|
|-----------------------------------------------------|
|-----------------------------------------------------|
|-----------------------------------------------------|
|-----------------------------------------------------|
|---4--4--4--4--4--4--4--4--4--4--4--4--4--4--4--4----|
|---2--2--2--2--2--2--2--2--2--2--2--2--2--2--2--2----|

|-----------------------------------------------------|
|----------------------------------------------------o|
|-----------------------------------------------------|
|-----------------------------------------------------|
|-----------------------------------------------------|
|---5--5--5--5--5--5--5--5--3--3--3--3--3--3--3--3---o|
|---3--3--3--3--3--3--3--3--1--1--1--1--1--1--1--1----|

Play Intro/ Chorus, then:

Bridge (trem pick all notes on both parts)

 Matt
|-------------|------------|-------------|----------------|
|-------------|------------|-------------|----------------|
|-------------|------------|-------------|----------------|
|-------------|------------|-------------|----------------|
|-------------|------------|-------------|----------------|
|-7----9---10-|-10----6----|--7---9---10-|-9------10--12--|
|-------------|------------|-------------|----------------|
|
|Corey
|-------------|------------|-------------|----------------|
|-------------|------------|-------------|----------------|
|-------------|------------|-------------|----------------|
|-------------|------------|-------------|----------------|
|-------------|------------|-------------|----------------|
|-------------|------------|-------------|----------------|
|-8-----------|-7----------|--8------3-2-|-10-------------|

Solo (Bridge riff is in background)
 Matt
|--------------------------------------------------|
|--0-14-15------------------------12---------------|
|----------17b19---16p14p0-16~~------11-12-9-9--7--|
|--------------------------------------------------|
|--------------------------------------------------|
|--------------------------------------------------|
|--------------------------------------------------|

|-------------------------------------------------------------|
|-------------------------------------------------------------|
|-----------7-----10p9p7-------------------7--11-11-11-11\9-9-|
|-----9-7-9---9-7--------9p8p7--------------------------------|
|-7-9-------------------------9p8\5--------5--9--9--9---9\7-7-|
|-----------------------------------5~~--5--------------------|
|-------------------------------------------------------------|

|-----------------------------------------------------------------------|
|-----------------------------------------------------------------------|
|--------------------------------------------------------------14-------|
|--------------------------------------------14h16h17p14h16h17---17p16--|
|-----------------------12h14p16p12h14h16/17----------------------------|
|--10h12h14p10h12h14/15-------------------------------------------------|
|-----------------------------------------------------------------------|

|-------------------14--14h15p14--14h15-17~-17-14--------|
|--14h15h17p14h15h17------------15---------------15------|
|--------------------------------------------------15~~--|
|--------------------------------------------------------|
|--------------------------------------------------------|
|--------------------------------------------------------|
|--------------------------------------------------------|

    sweep picking w/ pinky (not very easy)
|-----------15---------------------------------|
|---------12--12-------------------------------|
|-------12------12------------12-12-12-11-11~--|
|-----12----------12---------------------------|
|---10--------------10--------10-10-10--9--9~--|
|----------------------------------------------|
|----------------------------------------------|

|-----------17---------------------------------------------|
|---------14--14------------------------15-15-15-15\14-14--|
|-------14------14------------14-14-14---------------------|
|-----14----------14--------------------12-12-12-12\11-11--|
|---12--------------12--------12-12-12---------------------|
|----------------------------------------------------------|
|----------------------------------------------------------|

Chorus plays again, then:

Outro solo (played over the top of the chorus)
Corey
|---------------------------------------------|
|---------------------------------10----------|
|-11---11-12-11---9-11-11---11-12----12-11-12-|
|----9----------9---------9-------------------|
|---------------------------------------------|
|---------------------------------------------|
|---------------------------------------------|

|--------------------------------------------|
|--------------------------------------------|
|-11---11-12-11------9-11---11-12-12-9----9--|
|----9----------9-12------9------------12----|
|--------------------------------------------|
|--------------------------------------------|
|--------------------------------------------|2x

Slower part (use octave pedal, or split between 2 guitars)
|-14------14--15--14------12--14--14-----14--15--|
|-----12--------------15--------------12---------|
|-11------11--12--11-------9--11--11-----11--12--|
|------9--------------12--------------9----------|
|------------------------------------------------|
|------------------------------------------------|
|------------------------------------------------|

|-17--15--14--15--14------14--15--14------12--14-|
|---------------------12--------------15---------|
|-14--12--11--12--11------11--12--11-------9--11-|
|----------------------9--------------12---------|
|------------------------------------------------|
|------------------------------------------------|
|------------------------------------------------|

|-14------14--15--14-----------------------------|
|-----12--------------15--14---------------------|
|-11------11--12--11----------14--16~~~~~~-------|
|------9--------------12--11---------------------|
|-----------------------------12--14~~~~~~-------|
|------------------------------------------------|
|------------------------------------------------|


Key:
/ or \ - Slide up to or down from note
TP     - Tremelo picking
b      - bend
r      - release
PM     - Palm Mute
h      - hammer-on
p      - pull-off
~      - vibrato
x      - muted strings (strings touched without fretting)  
            
Submit corrections


        And Sadness Will Sear lessons Hard to play? Try these video lessons and learn fast And Sadness Will Sear lessons
        
↑ Back to top | Tablatures and chords for acoustic guitar and electric guitar, ukulele, drums are parodies/interpretations of the original songs. You may use it for private study, scholarship, research or language learning purposes only