Home » T » Triumph »

Triumph - What Rules My Heart Tabs

Artists:  A B C D E F G H I J K L M N O P Q R S T U V W X Y Z # 

What Rules My Heart Tabs

(ver. 1) Click to play this song!
Triumph
 Rating:
4.3/5 (18 votes)
                [Intro]

  |(GTR 2: Electric)
     Q.     E  Q.      E     Q     H.     Q.     E  Q.     E     Q    H.
e|-----------------------|-------------|---------------------|-------------|
B|-----------------------|-------------|---------------------|-------------|
G|-----------------------|-------------|---------------------|-------------|
D|---------5--7------10--|--L----12----|--------5--7-----10--|--L----12----|
A|---------3--5-------8--|--L----10----|--------3--5------8--|--L----10----|
E|-----------------------|-------------|---------------------|-------------|

e|-----------------------|-------------|---------------------|-------------|
B|-----------------------|-------------|---------------------|-------------|
G|-----------------------|-------------|---------------------|-------------|
D|---------5--7------10--|--L----12----|--------5--7-----10--|--L----12----|
A|---------3--5-------8--|--L----10----|--------3--5------8--|--L----10----|
E|-----------------------|-------------|---------------------|-------------|

 |(GTR 1: Acoustic)
    E  E  E  Q E  E  E     E  E  Q     E   E  Q      E  E  E  Q    E  E  E      E  E  E  E  E  E  Q
e|--------1-------------|-------------------------|-----------1-------------|-------------------------|
B|-----3-------3-----3--|--L-----3------------3---|--L-----3-------3-----3--|--L-----3--------1--3----|
G|--2-------------2-----|-----2------------0------|-----2-------------2-----|-----2-----2--0----------|
D|----------------------|-------------(2)---------|-------------------------|-------------------------|
A|----------------------|-------------------------|-------------------------|-------------------------|
E|----------------------|-------------------------|-------------------------|-------------------------|
 |(GTR 2: Electric)
    E  E  Q    E  E  E     E  E  Q     E   E  Q      E  E  E  Q    E  E  E     E  E  E  E  E  E  Q
e|----------------------|-------------------------|-------------------------|-------------------------|
B|----------------------|-------------------------|-------------------------|-------------------------|
G|----------------------|-------------------------|-------------------------|-------------------------|
D|--------3-------------|-------------------------|-----------3-------------|-------------------------|
A|-----5-------5-----5--|--L-----5------------5---|--L-----5-------5-----5--|--L-----5--------3--5----|
E|--5-------------5-----|-----5-------(0)--3------|-----5-------------5-----|-----5-----5--3----------|

[Verse 1]

 |(GTR 1: Acoustic)  {Let Notes Ring}
    E  E  E  Q E  E  E     E  E  Q     E   E  Q      E  E  E  Q    E  E  E      E  E  E  E  E  E  Q
e|--------1-------------|-------------------------|-----------1-------------|-------------------------|
B|-----3-------3-----3--|--L-----3------------3---|--L-----3-------3-----3--|--L-----3--------1--3----|
G|--2-------------2-----|-----2------------0------|-----2-------------2-----|-----2-----2--0----------|
D|----------------------|-------------(2)---------|-------------------------|-------------------------|
A|----------------------|-------------------------|-------------------------|-------------------------|
E|----------------------|-------------------------|-------------------------|-------------------------|
 |(GTR 2: Electric)
    E  E  Q    E  E  E     E  E  Q     E   E  Q      E  E  E  Q    E  E  E     E  E  E  E  E  E  Q
e|----------------------|-------------------------|-------------------------|-------------------------|
B|----------------------|-------------------------|-------------------------|-------------------------|
G|----------------------|-------------------------|-------------------------|-------------------------|
D|--------3-------------|-------------------------|-----------3-------------|-------------------------|
A|-----5-------5-----5--|--L-----5------------5---|--L-----5-------5-----5--|--L-----5--------3--5----|
E|--5-------------5-----|-----5-------(0)--3------|-----5-------------5-----|-----5-----5--3----------|

[Pre-Chorus]

    W       Q.     E  Q    Q       W       Q.     E  Q    Q
e|-------|----------------------|-------|----------------------|
B|-------|----------------------|-------|----------------------|
B|--3----|--5------5-------5----|--3----|--5------5--3----5----|
D|--3----|--5------5--3----5----|--3----|--5------5--3----5----|
A|--1----|--3------3--3----3----|--1----|--3------3--3----3----|
E|-------|------------1---------|-------|----------------------|

    W       Q.     E  Q    Q       H        H       H    H
E|-------|----------------------|--3-------------|----------------|
E|-------|----------------------|--3--------3----|-------R--------|
E|--3----|--5------5-------5----|--3--------3----|--5----E--------|
E|--3----|--5------5--3----5----|--5--------3----|--5----S--------|
E|--1----|--3------3--3----3----|--5--------1----|--3----T--------|
E|-------|------------1---------|--3-------------|----------------|

[Chorus]
  |(GTR 2: Electric)
     Q.     E  Q.      E     Q     H.     Q.     E  Q.     E     Q    H.
e|-----------------------|-------------|---------------------|-------------|
B|-----------------------|-------------|---------------------|-------------|
G|-----------------------|-------------|---------------------|-------------|
D|---------5--7------10--|--L----12----|--------5--7-----10--|--L----12----|
A|---------3--5-------8--|--L----10----|--------3--5------8--|--L----10----|
E|-----------------------|-------------|---------------------|-------------|

     Q.     E  Q.      E     Q     H.     Q.     E  Q.     E     Q    H.
e|-----------------------|-------------|---------------------|-------------|
B|-----------------------|-------------|---------------------|-------------|
G|-----------------------|-------------|---------------------|-------------|
D|---------5--7------10--|--L----12----|--------5--7-----10--|--L----12----|
A|---------3--5-------8--|--L----10----|--------3--5------8--|--L----10----|
E|-----------------------|-------------|---------------------|-------------|

[Lead Break]

 |(GTR 1: Acoustic)
    E  E  E  Q E  E  E     E  E  Q     E   E  Q      E  E  E  Q    E  E  E      E  E  E  E  E  E  Q
e|--------1-------------|-------------------------|-----------1-------------|-------------------------|
B|-----3-------3-----3--|--L-----3------------3---|--L-----3-------3-----3--|--L-----3--------1--3----|
G|--2-------------2-----|-----2------------0------|-----2-------------2-----|-----2-----2--0----------|
D|----------------------|-------------(2)---------|-------------------------|-------------------------|
A|----------------------|-------------------------|-------------------------|-------------------------|
E|----------------------|-------------------------|-------------------------|-------------------------|
 |(GTR 2: Electric)
    E  E  Q    E  E  E     E  E  Q     E   E  Q      E  E  E  Q    E  E  E     E  E  E  E  E  E  Q
e|----------------------|-------------------------|-------------------------|-------------------------|
B|----------------------|-------------------------|-------------------------|-------------------------|
G|----------------------|-------------------------|-------------------------|-------------------------|
D|--------3-------------|-------------------------|-----------3-------------|-------------------------|
A|-----5-------5-----5--|--L-----5------------5---|--L-----5-------5-----5--|--L-----5--------3--5----|
E|--5-------------5-----|-----5-------(0)--3------|-----5-------------5-----|-----5-----5--3----------|
 |(GTR 3: Overdrive)                                                            |---3---|   |---3---|
                           Q.   S S  E  E   E  E      W                         Q   Q   Q   Q  Q   Q
e|----------------------|----------------------8--|-------------------------|--13--12-----------------|
B|----------------------|---------------8--10-----|--10---------------------|----------13-------------|
G|----------------------|-------7-9-10------------|-------------------------|--------------10--9--12--|
D|----------------------|-------------------------|-------------------------|-------------------------|
A|----------------------|-------------------------|-------------------------|-------------------------|
E|----------------------|-------------------------|-------------------------|-------------------------|

[Verse 2]

 |(GTR 1: Acoustic)  {Let Notes Ring}
    E  E  E  Q E  E  E     E  E  Q     E   E  Q      E  E  E  Q    E  E  E      E  E  E  E  E  E  Q
e|--------1-------------|-------------------------|-----------1-------------|-------------------------|
B|-----3-------3-----3--|--L-----3------------3---|--L-----3-------3-----3--|--L-----3--------1--3----|
G|--2-------------2-----|-----2------------0------|-----2-------------2-----|-----2-----2--0----------|
D|----------------------|-------------(2)---------|-------------------------|-------------------------|
A|----------------------|-------------------------|-------------------------|-------------------------|
E|----------------------|-------------------------|-------------------------|-------------------------|
 |(GTR 2: Electric)
    E  E  Q    E  E  E     E  E  Q     E   E  Q      E  E  E  Q    E  E  E     E  E  E  E  E  E  Q
e|----------------------|-------------------------|-------------------------|-------------------------|
B|----------------------|-------------------------|-------------------------|-------------------------|
G|----------------------|-------------------------|-------------------------|-------------------------|
D|--------3-------------|-------------------------|-----------3-------------|-------------------------|
A|-----5-------5-----5--|--L-----5------------5---|--L-----5-------5-----5--|--L-----5--------3--5----|
E|--5-------------5-----|-----5-------(0)--3------|-----5-------------5-----|-----5-----5--3----------|
 |(GTR 3: Overdrive)
     W                  (GTR 3 Tacet)
e|----------------------|-------------------------|-------------------------|-------------------------|
B|----------------------|-------------------------|-------------------------|-------------------------|
G|----------------------|-------------------------|-------------------------|-------------------------|
D|--12------------------|-------------------------|-------------------------|-------------------------|
A|----------------------|-------------------------|-------------------------|-------------------------|
E|----------------------|-------------------------|-------------------------|-------------------------|

 |(GTR 1: Acoustic)  {Let Notes Ring}
    E  E  E  Q E  E  E     E  E  Q     E   E  Q      E  E  E  Q    E  E  E      E  E  E  E  E  E  Q
e|--------1-------------|-------------------------|-----------1-------------|-------------------------|
B|-----3-------3-----3--|--L-----3------------3---|--L-----3-------3-----3--|--L-----3--------1--3----|
G|--2-------------2-----|-----2------------0------|-----2-------------2-----|-----2-----2--0----------|
D|----------------------|-------------(2)---------|-------------------------|-------------------------|
A|----------------------|-------------------------|-------------------------|-------------------------|
E|----------------------|-------------------------|-------------------------|-------------------------|
 |(GTR 2: Electric)
    E  E  Q    E  E  E     E  E  Q     E   E  Q      E  E  E  Q    E  E  E     E  E  E  E  E  E  Q
e|----------------------|-------------------------|-------------------------|-------------------------|
B|----------------------|-------------------------|-------------------------|-------------------------|
G|----------------------|-------------------------|-------------------------|-------------------------|
D|--------3-------------|-------------------------|-----------3-------------|-------------------------|
A|-----5-------5-----5--|--L-----5------------5---|--L-----5-------5-----5--|--L-----5--------3--5----|
E|--5-------------5-----|-----5-------(0)--3------|-----5-------------5-----|-----5-----5--3----------|

[Pre-Chorus]

    W       Q.     E  Q    Q       W       Q.     E  Q    Q
e|-------|----------------------|-------|----------------------|
B|-------|----------------------|-------|----------------------|
B|--3----|--5------5-------5----|--3----|--5------5--3----5----|
D|--3----|--5------5--3----5----|--3----|--5------5--3----5----|
A|--1----|--3------3--3----3----|--1----|--3------3--3----3----|
E|-------|------------1---------|-------|----------------------|

    W       Q.     E  Q    Q       H        H       H    H
E|-------|----------------------|--3-------------|----------------|
E|-------|----------------------|--3--------3----|-------R--------|
E|--3----|--5------5-------5----|--3--------3----|--5----E--------|
E|--3----|--5------5--3----5----|--5--------3----|--5----S--------|
E|--1----|--3------3--3----3----|--5--------1----|--3----T--------|
E|-------|------------1---------|--3-------------|----------------|

[Chorus]

  |(GTR 2: Electric)
     Q.     E  Q.      E     Q     H.     Q.     E  Q.     E     Q    H.
e|-----------------------|-------------|---------------------|-------------|
B|-----------------------|-------------|---------------------|-------------|
G|-----------------------|-------------|---------------------|-------------|
D|---------5--7------10--|--L----12----|--------5--7-----10--|--L----12----|
A|---------3--5-------8--|--L----10----|--------3--5------8--|--L----10----|
E|-----------------------|-------------|---------------------|-------------|

e|-----------------------|-------------|---------------------|-------------|
B|-----------------------|-------------|---------------------|-------------|
G|-----------------------|-------------|---------------------|-------------|
D|---------5--7------10--|--L----12----|--------5--7-----10--|--L----12----|
A|---------3--5-------8--|--L----10----|--------3--5------8--|--L----10----|
E|-----------------------|-------------|---------------------|-------------|

[Solo]

 |(GTR 2: Electric)
    W       H      Q    Q       Q.     E  H       Q.     E  H
e|-------|-------------------|-----------------|-------------------|
B|--3----|--L-----------5----|--6------6--L----|--6------6--L------|
G|--3----|--L-----------5----|--7------7--L----|--7------7--L------|
D|--3----|--L------0----5----|--7------7--L----|--7------7--L------|
A|--1----|--L------1----3----|--5------5--L----|--5------5--L------|
E|-------|---------1---------|-----------------|-------------------|
 |(GTR 3: Overdrive)
    Q  E    Q.  S S  Q. S  S    E   Q     E  H    E   Q     E  H
e|-------|-------------------|-----------------|-------------------|
B|-------|-------------------|-----------------|-----17----15--L---|
G|--7--9-|-10--9-10-12-12-10-|--9--------------|--7----------------|
D|--7--9-|-10----------------|-----10----12--L-|-------------------|
A|-------|-------------------|-----------------|-------------------|
E|-------|-------------------|-----------------|-------------------|

 |(GTR 2: Electric)     {GTR 3: Tacet}
    W       H      Q    Q       Q.     E  H       Q.     E  H
e|-------|-------------------|-----------------|-------------------|
B|--3----|--L-----------5----|--6------6--L----|--6------6--L------|
G|--3----|--L-----------5----|--7------7--L----|--7------7--L------|
D|--3----|--L------0----5----|--7------7--L----|--7------7--L------|
A|--1----|--L------1----3----|--5------5--L----|--5------5--L------|
E|-------|---------1---------|-----------------|-------------------|

    W       H      Q    Q       Q.     E  H       Q.     E  H
e|-------|-------------------|-----------------|-------------------|
B|--3----|--L------3----5----|--6------6--L----|--6------6--L------|
G|--3----|--L------3----5----|--7------7--L----|--7------7--L------|
D|--3----|--L------3----5----|--7------7--L----|--7------7--L------|
A|--1----|--L------1----3----|--5------5--L----|--5------5--L------|
E|-------|---------1---------|-----------------|-------------------|

[Interlude]
 |(GTR 2: Electric)     {GTR 3: Plays root notes underneath}
    W       H      Q    Q       Q.     E  H       Q.     E  H
e|-------|-------------------|-----------------|-------------------|
B|--3----|--L-----------5----|--6------6--L----|--6------6--L------|
G|--3----|--L-----------5----|--7------7--L----|--7------7--L------|
D|--3----|--L------0----5----|--7------7--L----|--7------7--L------|
A|--1----|--L------1----3----|--5------5--L----|--5------5--L------|
E|-------|---------1---------|-----------------|-------------------|

    W       H      Q    Q       Q.     E  H       Q.     E  H
e|-------|-------------------|-----------------|-------------------|
B|--3----|--L------3----5----|--6------6--L----|--6------6--L------|
G|--3----|--L------3----5----|--7------7--L----|--7------7--L------|
D|--3----|--L------3----5----|--7------7--L----|--7------7--L------|
A|--1----|--L------1----3----|--5------5--L----|--5------5--L------|
E|-------|---------1---------|-----------------|-------------------|

[Chorus]

     Q.     E  Q.      E     Q     H.     Q.     E  Q.     E     Q    H.
e|-----------------------|-------------|---------------------|-------------|
B|-----------------------|-------------|---------------------|-------------|
G|-----------------------|-------------|---------------------|-------------|
D|---------5--7------10--|--L----12----|--------5--7-----10--|--L----12----|
A|---------3--5-------8--|--L----10----|--------3--5------8--|--L----10----|
E|-----------------------|-------------|---------------------|-------------|

     Q.     E  Q.      E     Q     H.     Q.     E  Q.     E     Q    H.
e|-----------------------|-------------|---------------------|-------------|
B|-----------------------|-------------|---------------------|-------------|
G|-----------------------|-------------|---------------------|-------------|
D|---------5--7------10--|--L----12----|--------5--7-----10--|--L----12----|
A|---------3--5-------8--|--L----10----|--------3--5------8--|--L----10----|
E|-----------------------|-------------|---------------------|-------------|

[Outro]
(GTR 2: Electric)
     Q.     E  Q.      E     Q     H.     Q.     E  Q.     E     Q    H.
e|-----------------------|-------------|---------------------|-------------|
B|-----------------------|-------------|---------------------|-------------|
G|-----------------------|-------------|---------------------|-------------|
D|---------5--7------10--|--L----12----|--------5--7-----10--|--L----12----|
A|---------3--5-------8--|--L----10----|--------3--5------8--|--L----10----|
E|-----------------------|-------------|---------------------|-------------|

     Q.     E  Q.      E     Q     H.     Q.     E  Q.     E     Q    H.
e|-----------------------|-------------|---------------------|-------------|
B|-----------------------|-------------|---------------------|-------------|
G|-----------------------|-------------|---------------------|-------------|
D|---------5--7------10--|--L----12----|--------5--7-----10--|--L----12----|
A|---------3--5-------8--|--L----10----|--------3--5------8--|--L----10----|
E|-----------------------|-------------|---------------------|-------------|

     Q.     E  Q.      E     Q     H.     Q.     E  Q.     E     Q    H.
e|-----------------------|-------------|---------------------|-------------|
B|-----------------------|-------------|---------------------|-------------|
G|-----------------------|-------------|---------------------|-------------|
D|---------5--7------10--|--L----12----|--------5--7-----10--|--L----12----|
A|---------3--5-------8--|--L----10----|--------3--5------8--|--L----10----|
E|-----------------------|-------------|---------------------|-------------|

     Q.     E  Q.      E     Q     H.     Q.     E  Q.     E     Q    H.
e|-----------------------|-------------|---------------------|-------------|
B|-----------------------|-------------|---------------------|-------------|
G|-----------------------|-------------|---------------------|-------------|
D|---------5--7------10--|--L----12----|--------5--7-----10--|--L----12----|
A|---------3--5-------8--|--L----10----|--------3--5------8--|--L----10----|
E|-----------------------|-------------|---------------------|-------------|            
Submit corrections

↑ Back to top | Tablatures and chords for acoustic guitar and electric guitar, ukulele, drums are parodies/interpretations of the original songs. You may use it for private study, scholarship, research or language learning purposes only