» » »

Trist - Sneni Tabs

Artists:  A B C D E F G H I J K L M N O P Q R S T U V W X Y Z # 

Sneni Tabs

(ver. 1) Click to play this song!
Trist
 Rating:
4.9/5 (20 votes)

 Sneni  lessons Tabs too difficult? Try these video lessons and learn fast
 
                Tuning:Standard

e|---------------------------------------------------------------------------------|
B|---------------------------------------------------------------------------------|
G|--9--9---------------------------------------------------------------------------|
D|--10-10--------------------------------------------------------------------------|
A|--0--8---------------------------------------------------------------------------|
E|---------------------------------------------------------------------------------|

e|-----------------------------------------------------------------------------------|
B|-----------------------------------------------------------------------------------|
G|--12-12-10-9-----------------------------------------------------------------------|
D|--10-10-10-10----------------------------------------------------------------------|
A|--0--8--8--8-----------------------------------------------------------------------|
E|-----------------------------------------------------------------------------------|

e|-----------------------------------------------------------------------------------|
B|-----------------------------------------------------------------------------------|
G|-----------------------------------------------------------------------------------|
D|----0--------0---------------------------------------------------------------------|
A|---4--4-----4--4-------------------------------------------------------------------|
E|--2--------0-----------------------------------------------------------------------|            
Submit corrections


        Sneni  lessons Hard to play? Try these video lessons and learn fast Sneni  lessons
        
↑ Back to top | Tablatures and chords for acoustic guitar and electric guitar, ukulele, drums are parodies/interpretations of the original songs. You may use it for private study, scholarship, research or language learning purposes only