» » »

Trist - Sebevrazedni Andele Tabs

Artists:  A B C D E F G H I J K L M N O P Q R S T U V W X Y Z # 

Sebevrazedni Andele Tabs

(ver. 1) Click to play this song!
Trist
 Rating:
4.3/5 (29 votes)

 Sebevrazedni Andele lessons Tabs too difficult? Try these video lessons and learn fast
 
                
[Riff 1:]
   
e|---------------------------------------------------------------------------|
B|-0-0-----------------------------------------------------------------------|
G|-0-0-----------------------------------------------------------------------|
D|-2-2-----------------------------------------------------------------------|
A|-3-2-----------------------------------------------------------------------|
E|---------------------------------------------------------------------------|


[Riff 2:]

e|---------------------------------------------------------------------------|
B|--0-0----------------------------------------------------------------------|
G|--0-0----------------------------------------------------------------------|
D|--4-4----------------------------------------------------------------------|
A|--5-2----------------------------------------------------------------------|
E|---------------------------------------------------------------------------|


[Riff 3:]

e|---------------------------------------------------------------------------|
B|--0-0-0--------------------------------------------------------------------|
G|--0-0-0--------------------------------------------------------------------|
D|--2-2-2--------------------------------------------------------------------|
A|--2-2-3--------------------------------------------------------------------|
E|--0-3-3--------------------------------------------------------------------|            
Submit corrections


        Sebevrazedni Andele lessons Hard to play? Try these video lessons and learn fast Sebevrazedni Andele lessons
        
↑ Back to top | Tablatures and chords for acoustic guitar and electric guitar, ukulele, drums are parodies/interpretations of the original songs. You may use it for private study, scholarship, research or language learning purposes only