» » »

Trist - Posledni Cesta Tabs

Artists:  A B C D E F G H I J K L M N O P Q R S T U V W X Y Z # 

Posledni Cesta Tabs

(ver. 1) Click to play this song!
Trist
 Rating:
3/5 (28 votes)

 Posledni Cesta  lessons Tabs too difficult? Try these video lessons and learn fast
 
                e|---------------------------------------------------------------------------|
B|---------------------------------------------------------------------------|
G|---------------------------------------------------------------------------|
D|--10-9-9-7-----------------------------------------------------------------|
A|--0--0-8-8-----------------------------------------------------------------|
E|---------------------------------------------------------------------------|

e|---------------------------------------------------------------------------|
B|---------------------------------------------------------------------------|
G|--4-5-7-4-5-4--------------------------------------------------------------|
D|--5-5-5-5-5-5--------------------------------------------------------------|
A|--3-3-3-2-2-2--------------------------------------------------------------|
E|---------------------------------------------------------------------------|

e|---------------------------------------------------------------------------|
B|---------------------------------------------------------------------------|
G|---------------------------------------------------------------------------|
D|--3-7----------------------------------------------------------------------|
A|--3-7----------------------------------------------------------------------|
E|--1-5----------------------------------------------------------------------|

e|---------------------------------------------------------------------------|
B|---------------------------------------------------------------------------|
G|--9-7-10-------------------------------------------------------------------|
D|--7-7-7--------------------------------------------------------------------|
A|--0-8-8--------------------------------------------------------------------|
E|---------------------------------------------------------------------------|

e|---------------------------------------------------------------------------|
B|---------------------------------------------------------------------------|
G|---------------------------------------------------------------------------|
D|--0-0-0-0------------------------------------------------------------------|
A|--0-3-3-2------------------------------------------------------------------|
E|--1-1-0-0------------------------------------------------------------------|

e|---------------------------------------------------------------------------|
B|---------------------------------------------------------------------------|
G|--6-9-7-6-6-9-7-6----------------------------------------------------------|
D|--7-7-7-7-7-7-7-7----------------------------------------------------------|
A|--7-7-7-7-5-5-5-5----------------------------------------------------------|
E|---------------------------------------------------------------------------|

e|---------------------------------------------------------------------------|
B|---------------------------------------------------------------------------|
G|--9--12-10-9--9--12-10-9---------------------------------------------------|
D|--10-10-10-10-10-10-10-10--------------------------------------------------|
A|--0--0--0--0--8--8--8--8---------------------------------------------------|
E|---------------------------------------------------------------------------|            
Submit corrections


        Posledni Cesta  lessons Hard to play? Try these video lessons and learn fast Posledni Cesta  lessons
        
↑ Back to top | Tablatures and chords for acoustic guitar and electric guitar, ukulele, drums are parodies/interpretations of the original songs. You may use it for private study, scholarship, research or language learning purposes only