» » »

Trist - Mlhove Pole Tabs

Artists:  A B C D E F G H I J K L M N O P Q R S T U V W X Y Z # 

Mlhove Pole Tabs

(ver. 1) Click to play this song!
Trist
 Rating:
4.3/5 (29 votes)

 Mlhove Pole  lessons Tabs too difficult? Try these video lessons and learn fast
 
                [Intro] 

e|---------------------------------------------------------------------------|
B|---------------------------------------------------------------------------|
G|-12------------------------------------------------------------------------|
D|-10-9-7-7-9-10-------------------------------------------------------------|
A|-0--0-0-7-7-7--------------------------------------------------------------|
E|---------------------------------------------------------------------------|(x4)



[Verse]

e|---------------------------------------------------------------------------|
B|---------------------------------------------------------------------------|
G|-9-10-9-7-9-10-10-9--------------------------------------------------------|
D|-7-7--7-7-7-7--7--7--------------------------------------------------------|
A|-0-0--8-8-0-0--8--8--------------------------------------------------------|
E|---------------------------------------------------------------------------|(x2)



[Chorus]

e|---------------------------------------------------------------------------|
B|---------------------------------------------------------------------------|
G|-0-0-0---------------------------------------------------------------------|
D|-5-7-4---------------------------------------------------------------------|
A|-3-5-2---------------------------------------------------------------------|
E|---------------------------------------------------------------------------|(x4)


[Verse 2]

e|---------------------------------------------------------------------------|
B|---------------------------------------------------------------------------|
G|---------------------------------------------------------------------------|
D|-0-4-0-2-3-----------------------------------------------------------------|
A|-2-2-1-1-1-----------------------------------------------------------------|
E|---------------------------------------------------------------------------|(x4)

 
[Verse 3]

e|---------------------------------------------------------------------------|
B|---------------------------------------------------------------------------|
G|----12---5-----------------------------------------------------------------|
D|-10-10-4-4-----------------------------------------------------------------|
A|-8--8--6-6-----------------------------------------------------------------|
E|---------------------------------------------------------------------------|(x4)


[Bridge]

e|---------------------------------------------------------------------------|
B|-1-0-1-0-------------------------------------------------------------------|
G|-2-2-2-2-------------------------------------------------------------------|
D|-2-2-3-3-------------------------------------------------------------------|
A|---------------------------------------------------------------------------|
E|---------------------------------------------------------------------------|(x4)


[Chorus] 

e|---------------------------------------------------------------------------|
B|---------------------------------------------------------------------------|
G|-0-0-0---------------------------------------------------------------------|
D|-5-7-4---------------------------------------------------------------------|
A|-3-5-2---------------------------------------------------------------------|
E|---------------------------------------------------------------------------|(x4)


[Verse 2] 

e|---------------------------------------------------------------------------|
B|---------------------------------------------------------------------------|
G|---------------------------------------------------------------------------|
D|-0-4-0-2-3-----------------------------------------------------------------|
A|-2-2-1-1-1-----------------------------------------------------------------|
E|---------------------------------------------------------------------------|(x4)


[Outro]

e|---------------------------------------------------------------------------|
B|---------------------------------------------------------------------------|
G|-12------------------------------------------------------------------------|
D|-10-9-7-7-9-10-------------------------------------------------------------|
A|-0--0-0-7-7-7--------------------------------------------------------------|
E|---------------------------------------------------------------------------|(x4)            
Submit corrections


        Mlhove Pole  lessons Hard to play? Try these video lessons and learn fast Mlhove Pole  lessons
        
↑ Back to top | Tablatures and chords for acoustic guitar and electric guitar, ukulele, drums are parodies/interpretations of the original songs. You may use it for private study, scholarship, research or language learning purposes only