Home » T » Tripping Daisy »

Tripping Daisy - Bang Chords

Artists:  A B C D E F G H I J K L M N O P Q R S T U V W X Y Z # 

Bang Chords

(ver. 1) Click to play this song!
Tripping Daisy
 Rating:
3.6/5 (5 votes)
                Bass tab for "Bang"
Music: Tripping Daisy
Words: Tim Delaughter

I'm doing this from memory so I can't remember all the lyrics - I think
the tab is o.k. though....

Verse:

G:----6/8\6--------6/8\6------------------------------------|
							    |
D:-4---------8--4---------8-----8--6--8--8-----8--6--8--9---|
							    |
A:---------------------------6--------------6---------------|
                 					    |
E:----------------------------------------------------------|
  What.....		     Pleasure.......


Pre-chorus:

G:----------------------------------------------------|
						      |
D:----------------------------------------------------|
						      |
A:----------------------------------------------------|
	  					      |
E:-2--2--2/5--5--5--0--0--0/7--7--7-------------------|
  All you do...


Chorus pt. I:

G:------------------------------------------------

D:-------------------------------------------------

A:------------------------------------------------

E:-2--0-2--0-2-0--2--0-2--0-2-0--------------------
  Bang........
  Why you wanna watch me.......


Chorus pt. II:

G:--------------------------------------------------|
						    |
D:------------------------5/9--9--9--9--9--9--7--9--|
						    |
A:-5--5--5--5--5--5--5--5---------------------------|
						    |
E:--------------------------------------------------|
  You play.....		  strings.......

The order is:
	Verse (lots)
	Pre-chorus (x4)
	Chorus I(x4 or 8, I can't remember exactly)
	Chorus II (x1)
	Chorus I (x2)
	Chorus II (x1)
	..then there's an slow ascending thing that starts on F#..
	Verse again (etc, etc....)
            
Submit corrections

↑ Back to top | Tablatures and chords for acoustic guitar and electric guitar, ukulele, drums are parodies/interpretations of the original songs. You may use it for private study, scholarship, research or language learning purposes only