Home » T » Tripod »

Tripod - Gonna Make You Happy Tonight Bass

Artists:  A B C D E F G H I J K L M N O P Q R S T U V W X Y Z # 

Gonna Make You Happy Tonight Bass

(Version #1)
Tripod
Tripod


hey guys, this is my first bass tab. the basic riff is mostly constant
 throughout the  song. the rhythm of the song is fairly easy to get if you
 listen to it. pretty funky.

G-------------------------------------------------|
D-------------------------------------------------| repeat
A-------------------2--3-4-4----------------------|
E--2--0-1-2-2---4---------------------------------|

it also alternates with this one:

G---------------------------------------------------|
D---------------------------------------------------|
A-----------------------2-4-4-----------------------|
E--2---2-2---2-3-4---4------------------------------|



comments appreciated, thanks guys (:
            
Submit corrections

↑ Back to top | Tablatures and chords for acoustic guitar and electric guitar, ukulele, drums are parodies/interpretations of the original songs. You may use it for private study, scholarship, research or language learning purposes only