» » »

Trevor Hall - Lullaby Tabs

Artists:  A B C D E F G H I J K L M N O P Q R S T U V W X Y Z # 

Lullaby Tabs

(ver. 2) Click to play this song!
Trevor Hall
 Rating:
4.3/5 (6 votes)

 Lullaby lessons Tabs too difficult? Try these video lessons and learn fast
 
                ok so this is kinda sketchy, i think it sounds pretty good, i got like the first three 
before he starts singing, NO PICK!
for the majority of the song you'll use your middle finger for B, pointer for D and your 
for low E (which is D it's in it's drop D).

tuning: DADGBe
capo: none

trevor hall...amazing song, very chill

e:----------------------------------------------------------------------------|
B:3-5-5s7-7--7--7--7--7-7h8--8--8--8--8-7-5s7-7--7--7--5s7s5p0-0h3-3--3--3----|
G:----------------------------------------------------------------------------|
D:0-0-0----0--0--0--0---0-----0--0--0-0-0-0----0--0--0-0------------0--0--0x2-|
A:----------------------------------------------------------------------------|
D:-------0--0--0--0--0------0--0--0--0-------0--0--0--0-----------0--0--0--0--|

e:--------------------------------|
B:3-2-0---------------------------|
G:------2-2h4p2p0-0h2-2--2--2--2--|
D:0-0-0-0-0-------0----0--0--0----| x2
A:--------------------------------|
D:-0-0-0-0-----------0--0--0--0---|

e:
B:
G:
D:
A:
D:

much much more to come guys, just a tad busy at the moment
            
Submit corrections


        Lullaby lessons Hard to play? Try these video lessons and learn fast Lullaby lessons
        
↑ Back to top | Tablatures and chords for acoustic guitar and electric guitar, ukulele, drums are parodies/interpretations of the original songs. You may use it for private study, scholarship, research or language learning purposes only