Home » T » Tremonti »

Tremonti - My Last Mistake Tabs

Artists:  A B C D E F G H I J K L M N O P Q R S T U V W X Y Z # 

My Last Mistake Tabs

(ver. 1) Click to play this song!
Tremonti
 Rating:
4.3/5 (29 votes)
                [Main riff]

PM     * *  ***  * *     * *  ***  *  ***  * ***      * * *     *
eb|-------------------------------------------------|---------------------|
Bb|-------------------------------------------------|---------------------|
Gb|-------------------------------------------------|---------------------|
Db|-2-----------------3---------------------------3-|-------5/3---2-3-5-3-|
Ab|-2-----------------3---------------------------3-|-------5/3---2-3-5-3-|
Eb|-0--0-0--000--0-0--1--0-0--000--0--000--0-000--1-|-0-0-0-----0---------|


[Verse 1]

PM                      ** *** **    ** *** *** ****     * * *    *
eb|------0~-0~--0--0---------------------------------------------------------|
Bb|------0~-0~--0--0---------------------------------------------------------|
Gb|-4~---4~-4~--3~-2~--------------------------------------------------------|Play x2
Db|-2~---5~-----4~-3~--2------------3-------------------3------5/3---2-3-5-3-|
Ab|-2~---5~-----4~-3~--2------------3-------------------3------5/3---2-3-5-3-|
Eb|-0~---3~-----2~-1~--0-00-000-00--1-00-000-000-0-000--1-0-0-0----0---------|


[Pre-Chorus]

PM     * *  ***  * *     * *  ***  *  ***  * *      * *      
eb|-----------------------------------------------|------------|
Bb|-----------------------------------------------|------------|
Gb|-----------------------------------------------|------------|
Db|-2-----------------3-------------------------3-|-3-3--12///-|
Ab|-2-----------------3-------------------------3-|-3-3--12///-|
Eb|-0--0-0--000--0-0--1--0-0--000--0--000--0-0--1-|-1-1--12///-|


[Chorus]

eb|----------------3---3-3-3-3------------------------------------------|
Bb|----------------x---x-x-x-x------------------------------------------|
Gb|----------------0---0-0-0-0----7--7-7-7-7----5--5-5-5-5--------------|
Db|-2---2-2-2-2----0---0-0-0-0----7--7-7-7-7----5--5-5-5-5------------2-|
Ab|-2---2-2-2-2----x---x-x-x-x----5--5-5-5-5----3--3-3-3-3----2-2-2-2-2-|
Eb|-0---0-0-0-0----3---3-3-3-3----5--5-5-5-5----3--3-3-3-3----0-0-0-0-0-|
                                                                

[Chorus: part 2]

eb|----------------3---3-3-3-3-------------------------------------|
Bb|----------------x---x-x-x-x-------------------------------------|
Gb|----------------0---0-0-0-0----7--7-7-7-7----5--5-5-5-5----4~---|
Db|-2---2-2-2-2----0---0-0-0-0----7--7-7-7-7----5--5-5-5-5----2~---|
Ab|-2---2-2-2-2----x---x-x-x-x----5--5-5-5-5----3--3-3-3-3----2~---|
Eb|-0---0-0-0-0----3---3-3-3-3----5--5-5-5-5----3--3-3-3-3----0~---|
                                                              Let this chord ring


[Bridge: part 1]

eb|--------------------|
Bb|--------------------|
Gb|--------------------|
Db|-2-5-3---3---3-2~~~-|
Ab|-2-5-3---3---3-2~~~-|
Eb|-0-3-1-0-1-X-1-0~~~-|


[Bridge part 2]

(Played During Solo)

PM  * *     *   *      *  ***  * * * * *       * * * * * *     * *
eb|--------------------------------------|---------------------------|
Bb|--------------------------------------|-5-5-------------3-3-----3-|
Gb|--------------------------------------|-X-X-------------X-X-----X-|
Db|-----5-3---3---3-2--------------------|-5-5-------------3-3-----3-|
Ab|-----5-3---3---3-2--------------------|---------------------------|
Eb|-0-0-3-1-0-1-0-1-0--0--000--0-0-0-0-0-|-----0-0-0-0-0-0-----0-0---|


[Outro: part 1]

PM        *     
eb|------------------|--------------------|
Bb|------------------|-5-5-5//\\3-3-3-3-3-|
Gb|------------------|-X-X-X//\\X-X-X-X-X-|x2
Db|-2-5-3---3---3-2~-|-5-5-5//\\3-3-3-3-3-|
Ab|-2-5-3---3---3-2~-|--------------------|
Eb|-0-3-1-0-1-X-1-0~~|~~~~~~~~~~~~~~~~~~~~|
             
This part on the sneak peek video, Mark slides up and back down the neck between the chords
Let the open low E ring and fade through the higher notes.


[Outro: part 2] 

(Played Until The End Of The Song)

PM  * *     *   *      *  ***  * * * * *       * * * * * *     * *
eb|--------------------------------------|---------------------------|
Bb|--------------------------------------|-5-5-------------3-3-----3-|
Gb|--------------------------------------|-X-X-------------X-X-----X-|
Db|-----5-3---3---3-2--------------------|-5-5-------------3-3-----3-|
Ab|-----5-3---3---3-2--------------------|---------------------------|
Eb|-0-0-3-1-0-1-0-1-0--0--000--0-0-0-0-0-|-----0-0-0-0-0-0-----0-0---|            
Submit corrections

↑ Back to top | Tablatures and chords for acoustic guitar and electric guitar, ukulele, drums are parodies/interpretations of the original songs. You may use it for private study, scholarship, research or language learning purposes only