Home » T » Tremonti »

Tremonti - All I Was Tabs

Artists:  A B C D E F G H I J K L M N O P Q R S T U V W X Y Z # 

All I Was Tabs

(ver. 1) Click to play this song!
Tremonti



[Intro]

C#|-----------------------------------8--8----3----------------------------------------3-|
G#|-----------------------------------8--8----3----------------------------------------3-|
E |-----------------------------------9--9----4--------------------------------5-55----4-|
B |-----------------------------------10-10---5---------------2-22-------------5-55----5-| (X2)
F#|-----------------------------------10-10---5--------5-3-0--2-22------3-2----3-33----5-|
C#|-0-00-13-12-10-12-13-10-13-12-10-8-8--8--3-3--5-3-0--------0-00-000-----3-0------00-3-|


[Verse 1] (X2)

C#|---------------------------------------------------------------------------|
G#|---------------------------------------------------------------------------|
E |--------11b-7-----------------4-----4-2~-----------------------------------|
B |--------------9-7------------5-5---5-5-------------------------------------|
F#|------------------9b-------------------------------------------------------|
C#|--0------------------10-7-0-3---3-1----------------------------------------|

C#|---------------------------------------------------------------------------|
G#|---------------------------------------------------------------------------|
E |--------11b-7-----------------4-----4-4/7~---------------------------------|
B |--------------9-7------------5-5---5-5-------------------------------------|
F#|------------------9b-------------------------------------------------------|
C#|--0------------------10-7-0-3---3-1----------------------------------------|


[Chorus 1]

C#|-----------------------------------8--8----3----------------------------------------3-|
G#|-----------------------------------8--8----3----------------------------------------3-|
E |-----------------------------------9--9----4--------------------------------5-55----4-|
B |-----------------------------------10-10---5---------------2-22-------------5-55----5-| (X2)
F#|-----------------------------------10-10---5--------5-3-0--2-22------3-2----3-33----5-|
C#|-0-00-13-12-10-12-13-10-13-12-10-8-8--8--3-3--5-3-0--------0-00-000-----3-0------00-3-|


[Verse 2] (X2)

C#|---------------------------------------------------------------------------|
G#|---------------------------------------------------------------------------|
E |--------11b-7-----------------4-----4-2~-----------------------------------|
B |--------------9-7------------5-5---5-5-------------------------------------|
F#|------------------9b-------------------------------------------------------|
C#|--0------------------10-7-0-3---3-1----------------------------------------|

C#|---------------------------------------------------------------------------|
G#|---------------------------------------------------------------------------|
E |--------11b-7-----------------4-----4-4/7~---------------------------------|
B |--------------9-7------------5-5---5-5-------------------------------------|
F#|------------------9b-------------------------------------------------------|
C#|--0------------------10-7-0-3---3-1----------------------------------------|


[Chorus 2]

C#|-----------------------------------8--8----3----------------------------------------3-|
G#|-----------------------------------8--8----3----------------------------------------3-|
E |-----------------------------------9--9----4--------------------------------5-55----4-|
B |-----------------------------------10-10---5---------------2-22-------------5-55----5-| (X2)
F#|-----------------------------------10-10---5--------5-3-0--2-22------3-2----3-33----5-|
C#|-0-00-13-12-10-12-13-10-13-12-10-8-8--8--3-3--5-3-0--------0-00-000-----3-0------00-3-|


[Bridge]

C#|---------------------------------------------------------------------------|
G#|---------------------------------------------------------------------------|
E |---------------------------------------------------------------------------|
B |--5-3-2-3--5-3-2-3--5-3-2-3-5-3-2--5-3-2-3--5-3-2-3--5-3-2-222-000---------| (X4)
F#|---------------------------------------------------------------------------|
C#|-0--------0-------0--------0------0--------0--------0----------------------|


[Chorus 3]

C#|-----------------------------------8--8----3----------------------------------------3-|
G#|-----------------------------------8--8----3----------------------------------------3-|
E |-----------------------------------9--9----4--------------------------------5-55----4-|
B |-----------------------------------10-10---5---------------2-22-------------5-55----5-| (X2)
F#|-----------------------------------10-10---5--------5-3-0--2-22------3-2----3-33----5-|
C#|-0-00-13-12-10-12-13-10-13-12-10-8-8--8--3-3--5-3-0--------0-00-000-----3-0------00-3-|


[Outro]

C#|---------------------------------------------------------------------------|
G#|---------------------------------------------------------------------------|
E |---------------------------------------------------------------------------|
B |--5-3-2-3--5-3-2-3--5-3-2-3-5-3-2--5-3-2-3--5-3-2-3--5-3-2-222-000---------| (X4)
F#|---------------------------------------------------------------------------|
C#|-0--------0-------0--------0------0--------0--------0----------------------|

C#|---------------------------------------------------------------------------|
G#|---------------------------------------------------------------------------|
E |---------------------------------------------------------------------------|
B |-2-2--22-------------------------------------------------------------------|
F#|-2-2--22-------------------------------------------------------------------|
C#|-0-0--00-------------------------------------------------------------------|            
Submit corrections

↑ Back to top | Tablatures and chords for acoustic guitar and electric guitar, ukulele, drums are parodies/interpretations of the original songs. You may use it for private study, scholarship, research or language learning purposes only