» » »

Traveling Wilburys - Wilbury Twist Tabs

Artists:  A B C D E F G H I J K L M N O P Q R S T U V W X Y Z # 

Wilbury Twist Tabs

(ver. 1) Click to play this song!
Traveling Wilburys
 Rating:
4.1/5 (31 vote)

 Wilbury Twist lessons Tabs too difficult? Try these video lessons and learn fast
 
                 Intro
  Q=184(8=s8)
  N.C.         F#G5    F#G5      F#G5  G7
 4/4
  Gtr I (Ac. Gtr.)
  W            E E E E E E E E   E E E E +E  Q  E
|----------||------------------|-------3-(3)-3--3-|
|----------||o-----------------|-------6-(6)-6--6-|
|----------||------------------|-------4-(4)-4--4-|
|----------||------------------|-------3-(3)-3--3-|
|----------||o-4s5-5-5-4s5-5-5-|-4s5-5-5-(5)-5--5-|
|----------||--2s3-3-3-2s3-3-3-|-2s3-3-3-(3)-3--3-|


  F#G5    F#G5      F#G5  G7
  E E E E E E E E   E E E E +E  Q  E
|-----------------|-------3-(3)-3--3---||
|-----------------|-------6-(6)-6--6--o||
|-----------------|-------4-(4)-4--4---||
|-----------------|-------3-(3)-3--3---||
|-4s5-5-5-4s5-5-5-|-4s5-5-5-(5)-5--5--o||
|-2s3-3-3-2s3-3-3-|-2s3-3-3-(3)-3--3---||


 1st & 4th Verses
  $
  G7 G13G7 G13  G7 G1G7           G7 G13G7 G13  G7 G1G7
  Q  Q  Q  Q    Q  E E +E  Q.     Q  Q  Q  Q    Q  E E +E  Q.
|-3--3--3--3--|-3--3-3-(3)-3----|-3--3--3--3--|-3--3-3-(3)-3----|
|-6--5--6--5--|-6--5-6-(6)-6----|-6--5--6--5--|-6--5-6-(6)-6----|
|-4--4--4--4--|-4--4-4-(4)-4----|-4--4--4--4--|-4--4-4-(4)-4----|
|-3--3--3--3--|-3--3-3-(3)-3----|-3--3--3--3--|-3--3-3-(3)-3----|
|-5--5--5--5--|-5--5-5-(5)-5----|-5--5--5--5--|-5--5-5-(5)-5----|
|-3--3--3--3--|-3--3-3-(3)-3----|-3--3--3--3--|-3--3-3-(3)-3----|


  C7  C13 C7  C13   C7  G13C7              G7 G13G7 G13  G7 G1G7
   Q   Q   Q   Q     Q   E  E  +E   Q.     Q  Q  Q  Q    Q  E E +E  Q.
|--8---8---8---8--|--8---8--8--(8)--8----|-3--3--3--3--|-3--3-3-(3)-3----|
|-11--10--11--10--|-11--10-11-(11)-11----|-6--5--6--5--|-6--5-6-(6)-6----|
|--9---9---9---9--|--9---9--9--(9)--9----|-4--4--4--4--|-4--4-4-(4)-4----|
|--8---8---8---8--|--8---8--8--(8)--8----|-3--3--3--3--|-3--3-3-(3)-3----|
|-10--10--10--10--|-10--10-10-(10)-10----|-5--5--5--5--|-5--5-5-(5)-5----|
|--8---8---8---8--|--8---8--8--(8)--8----|-3--3--3--3--|-3--3-3-(3)-3----|


  D7                              G7 G13G7 G13  G7 G1G7
  Q  Q  Q  Q    Q  E E +E  Q.     Q  Q  Q  Q    Q  E E +E  Q.
|-5--5--5--5--|-5--5-5-(5)-5----|-3--3--3--3--|-3--3-3-(3)-3----|
|-7--7--7--7--|-7--7-7-(7)-7----|-6--5--6--5--|-6--5-6-(6)-6----|
|-5--5--5--5--|-5--5-5-(5)-5----|-4--4--4--4--|-4--4-4-(4)-4----|
|-7--7--7--7--|-7--7-7-(7)-7----|-3--3--3--3--|-3--3-3-(3)-3----|
|-5--5--5--5--|-5--5-5-(5)-5----|-5--5--5--5--|-5--5-5-(5)-5----|
|-------------|-----------------|-3--3--3--3--|-3--3-3-(3)-3----|


  F#G5    F#G5      F#G5  G7           F#G5    F#G5      F#G5  G7
  E E E E E E E E   E E E E +E  Q  E   E E E E E E E E   E E E E +E  Q  E
|-----------------|-------3-(3)-3--3-|-----------------|-------3-(3)-3--3-||
|-----------------|-------6-(6)-6--6-|-----------------|-------6-(6)-6--6-||
|-----------------|-------4-(4)-4--4-|-----------------|-------4-(4)-4--4-||
|-----------------|-------3-(3)-3--3-|-----------------|-------3-(3)-3--3-||
|-4s5-5-5-4s5-5-5-|-4s5-5-5-(5)-5--5-|-4s5-5-5-4s5-5-5-|-4s5-5-5-(5)-5--5-||
|-2s3-3-3-2s3-3-3-|-2s3-3-3-(3)-3--3-|-2s3-3-3-2s3-3-3-|-2s3-3-3-(3)-3--3-||


 2nd & 5th Verses
  G7 G13G7 G13  G7 G1G7           G7 G13G7 G13  G7 G1G7
  Q  Q  Q  Q    Q  E E +E  Q.     Q  Q  Q  Q    Q  E E +E  Q.
|-3--3--3--3--|-3--3-3-(3)-3----|-3--3--3--3--|-3--3-3-(3)-3----|
|-6--5--6--5--|-6--5-6-(6)-6----|-6--5--6--5--|-6--5-6-(6)-6----|
|-4--4--4--4--|-4--4-4-(4)-4----|-4--4--4--4--|-4--4-4-(4)-4----|
|-3--3--3--3--|-3--3-3-(3)-3----|-3--3--3--3--|-3--3-3-(3)-3----|
|-5--5--5--5--|-5--5-5-(5)-5----|-5--5--5--5--|-5--5-5-(5)-5----|
|-3--3--3--3--|-3--3-3-(3)-3----|-3--3--3--3--|-3--3-3-(3)-3----|


  C7  C13 C7  C13   C7  C13C7              G7 G13G7 G13  G7 G1G7
   Q   Q   Q   Q     Q   E  E  +E   Q.     Q  Q  Q  Q    Q  E E +E  Q.
|--8---8---8---8--|--8---8--8--(8)--8----|-3--3--3--3--|-3--3-3-(3)-3----|
|-11--10--11--10--|-11--10-11-(11)-11----|-6--5--6--5--|-6--5-6-(6)-6----|
|--9---9---9---9--|--9---9--9--(9)--9----|-4--4--4--4--|-4--4-4-(4)-4----|
|--8---8---8---8--|--8---8--8--(8)--8----|-3--3--3--3--|-3--3-3-(3)-3----|
|-10--10--10--10--|-10--10-10-(10)-10----|-5--5--5--5--|-5--5-5-(5)-5----|
|--8---8---8---8--|--8---8--8--(8)--8----|-3--3--3--3--|-3--3-3-(3)-3----|


                                                       To Coda
  D7                              G7 G13G7 G13  G7 G1G7
  Q  Q  Q  Q    Q  E E +E  Q.     Q  Q  Q  Q    Q  E E +E  Q.
|-5--5--5--5--|-5--5-5-(5)-5----|-3--3--3--3--|-3--3-3-(3)-3----||
|-7--7--7--7--|-7--7-7-(7)-7----|-6--5--6--5--|-6--5-6-(6)-6----||
|-5--5--5--5--|-5--5-5-(5)-5----|-4--4--4--4--|-4--4-4-(4)-4----||
|-7--7--7--7--|-7--7-7-(7)-7----|-3--3--3--3--|-3--3-3-(3)-3----||
|-5--5--5--5--|-5--5-5-(5)-5----|-5--5--5--5--|-5--5-5-(5)-5----||
|-------------|-----------------|-3--3--3--3--|-3--3-3-(3)-3----||


 Chorus
  F                       C
  W          +W           W          +W
|-1--------|-(1)--------|-0--------|-(0)----|
|-1--------|-(1)--------|-1--------|-(1)----|
|-2--------|-(2)--------|-0--------|-(0)----|
|-3--------|-(3)--------|-2--------|-(2)----|
|-3--------|-(3)--------|-3--------|-(3)----|
|-1--------|-(1)--------|----------|--------|


  F#G5    F#G5      F#G5  G7
  E E E E E E E E   E E E E +E   Q   E
|-----------------|-------3-(3)--3---3-|
|-----------------|-------6-(6)--6---6-|
|-----------------|-------4-(4)--4---4-|
|-----------------|-------3-(3)--3---3-|
|-4s5-5-5-4s5-5-5-|-4s5-5-5-(5)--5---5-|
|-2s3-3-3-2s3-3-3-|-2s3-3-3-(3)--3---3-|
|
| Gtr II (El. Gtr. w/ light dist.)
|                                ~~~
| W                 H        E   Q.
|-----------------|-------------15-----|
|-----------------|--------------------|
|-----------------|--------------------|
|-----------------|--------------------|
|-----------------|--------------------|
|-----------------|--------------------|


    F#G5      F#G5        F#G5  G7
    E E E E   E E E E     E E E E +E  Q  E
|---------------------|---------3-(3)-3--3--|
|---------------------|---------6-(6)-6--6--|
|---------------------|---------4-(4)-4--4--|
|---------------------|---------3-(3)-3--3--|
|---4s5-5-5---4s5-5-5-|---4s5-5-5-(5)-5--5--|
|---2s3-3-3---2s3-3-3-|---2s3-3-3-(3)-3--3--|
|
| a E E E E a E E E E   a E E E E  H
|-2s3-3-3-3-2s3-3-3-3-|-2s3-3-3-3-----------|
|-2s3-3-3-3-2s3-3-3-3-|-2s3-3-3-3-----------|
|---------------------|---------------------|
|---------------------|---------------------|
|---------------------|---------------------|
|---------------------|---------------------|


  F                       C          Bb
  W          +W           W          W
|-1--------|-(1)--------|-0--------|-1----|
|-1--------|-(1)--------|-1--------|-3----|
|-2--------|-(2)--------|-0--------|-3----|
|-3--------|-(3)--------|-2--------|-3----|
|-3--------|-(3)--------|-3--------|-1----|
|-1--------|-(1)--------|----------|------|


  F#G5    F#G5      F#G5  G7
  E E E E E E E E   E E E E +E   Q   E
|-----------------|-------3-(3)--3---3-|
|-----------------|-------6-(6)--6---6-|
|-----------------|-------4-(4)--4---4-|
|-----------------|-------3-(3)--3---3-|
|-4s5-5-5-4s5-5-5-|-4s5-5-5-(5)--5---5-|
|-2s3-3-3-2s3-3-3-|-2s3-3-3-(3)--3---3-|
|
| Gtr II
|                                ~~~
| W                 H        E   Q.
|-----------------|-------------15-----|
|-----------------|--------------------|
|-----------------|--------------------|
|-----------------|--------------------|
|-----------------|--------------------|
|-----------------|--------------------|


    F#G5      F#G5        F#G5  G7
    E E E E   E E E E     E E E E +E  Q  E
|---------------------|---------3-(3)-3--3--||
|---------------------|---------6-(6)-6--6--||
|---------------------|---------4-(4)-4--4--||
|---------------------|---------3-(3)-3--3--||
|---4s5-5-5---4s5-5-5-|---4s5-5-5-(5)-5--5--||
|---2s3-3-3---2s3-3-3-|---2s3-3-3-(3)-3--3--||
|
| a E E E E a E E E E   a E E E E  H
|-2s3-3-3-3-2s3-3-3-3-|-2s3-3-3-3-----------||
|-2s3-3-3-3-2s3-3-3-3-|-2s3-3-3-3-----------||
|---------------------|---------------------||
|---------------------|---------------------||
|---------------------|---------------------||
|---------------------|---------------------||


 3rd Verse
  G7 G13G7 G13  G7 G1G7           G7 G13G7 G13  G7 G1G7
  Q  Q  Q  Q    Q  E E +E  Q.     Q  Q  Q  Q    Q  E E +E  Q.
|-3--3--3--3--|-3--3-3-(3)-3----|-3--3--3--3--|-3--3-3-(3)-3----|
|-6--5--6--5--|-6--5-6-(6)-6----|-6--5--6--5--|-6--5-6-(6)-6----|
|-4--4--4--4--|-4--4-4-(4)-4----|-4--4--4--4--|-4--4-4-(4)-4----|
|-3--3--3--3--|-3--3-3-(3)-3----|-3--3--3--3--|-3--3-3-(3)-3----|
|-5--5--5--5--|-5--5-5-(5)-5----|-5--5--5--5--|-5--5-5-(5)-5----|
|-3--3--3--3--|-3--3-3-(3)-3----|-3--3--3--3--|-3--3-3-(3)-3----|


  C7  C13 C7  C13   C7  C13C7              G7 G13G7 G13  G7 G1G7
   Q   Q   Q   Q     Q   E  E  +E   Q.     Q  Q  Q  Q    Q  E E +E  Q.
|--8---8---8---8--|--8---8--8--(8)--8----|-3--3--3--3--|-3--3-3-(3)-3----|
|-11--10--11--10--|-11--10-11-(11)-11----|-6--5--6--5--|-6--5-6-(6)-6----|
|--9---9---9---9--|--9---9--9--(9)--9----|-4--4--4--4--|-4--4-4-(4)-4----|
|--8---8---8---8--|--8---8--8--(8)--8----|-3--3--3--3--|-3--3-3-(3)-3----|
|-10--10--10--10--|-10--10-10-(10)-10----|-5--5--5--5--|-5--5-5-(5)-5----|
|--8---8---8---8--|--8---8--8--(8)--8----|-3--3--3--3--|-3--3-3-(3)-3----|


  D7                              G7 G13G7 G13  G7 G13
  Q  Q  Q  Q    Q  E E +E  Q.     Q  Q  Q  Q    Q  E E +E  Q.
|-5--5--5--5--|-5--5-5-(5)-5----|-3--3--3--3--|-3--3-3-(3)-3------||
|-7--7--7--7--|-7--7-7-(7)-7----|-6--5--6--5--|-6--5-6-(6)-6------||
|-5--5--5--5--|-5--5-5-(5)-5----|-4--4--4--4--|-4--4-4-(4)-4------||
|-7--7--7--7--|-7--7-7-(7)-7----|-3--3--3--3--|-3--3-3-(3)-3------||
|-5--5--5--5--|-5--5-5-(5)-5----|-5--5--5--5--|-5--5-5-(5)-5------||
|-------------|-----------------|-3--3--3--3--|-3--3-3-(3)-3------||
|
| Gtr II
| W             W                 W             H       Q     E E
|-------------|-----------------|-------------|-------------------||
|-------------|-----------------|-------------|-------------------||
|-------------|-----------------|-------------|-------------------||
|-------------|-----------------|-------------|-----------------5-||
|-------------|-----------------|-------------|-------------------||
|-------------|-----------------|-------------|-------------------||


 Guitar Solo
  N.C.
  Gtrs I, II
  +E  E E E E E E E   E E E E +Q.   E   +E  E E E E E E E   E E E E +Q.   a E
|-------------------|-----------------|-------------------|-------------------|
|-------------------|-----------------|-------------------|-------------------|
|-----0---0---0---0-|---0-------------|-----0---0---0---0-|---0---------------|
|-(5)---3-----------|---------------5-|-(5)---3-----------|---------------3s5-|
|-----------5---4---|-3---1-----------|-----------5---4---|-3---1-------------|
|-------------------|-------3-(3)-----|-------------------|-------3-(3)-------|


  +E  E E E E E E E   E E E E +Q.   a E
|-------------------|-------------------|
|-------------------|-------------------|
|-----0---0---0---0-|---0---------------|
|-(5)---3-----------|---------------3s5-|
|-----------5---4---|-3---1-------------|
|-------------------|-------3-(3)-------|


  +E  E E E E E E E   E E E E +Q.   a E
|-------------------|---------------------|
|-------------------|---------------------|
|-----0---0---0---0-|---0-----------------|
|-(5)---3-----------|---------------3s5---|
|-----------5---4---|-3---1---------------|
|-------------------|-------3-(3)---------|


  +E   E  E  E  E  E  E  E    E  E  E  E  +Q.     a  E
|--------------------------|---------------------------|
|--------------------------|---------------------------|
|------0-----0-----0-----0-|-----0---------------------|
|-(5)-----3----------------|----------------------3s=5-|
|---------------5-----4----|--3-----1------------------|
|--------------------------|-----------3--(3)----------|
|
| Gtr III (Mandolin arr. for Gtr.)
|  E   E  E  E  E  E  E  E    E  E  E  E  +E   Q     E
|-----10-10-10-10-10-10-10-|-10-10-10-10-(10)-10----10-|
|-----10-10-10-10-10-10-10-|-10-10-10-10-(10)-10----10-|
|--------------------------|---------------------------|
|--------------------------|---------------------------|
|--------------------------|---------------------------|
|--------------------------|---------------------------|


  +E   E  E  E  E  E  E  E    E  E  E  E  +H
|--------------------------|----------------------||
|--------------------------|----------------------||
|------0-----0-----0-----0-|-----0----------------||
|-(5)-----3----------------|----------------------||
|---------------5-----4----|--3-----1-------------||
|--------------------------|-----------3--(3)-----||
|
|  E   E  E  E  E  E  E  E    E  E  E  E  +Q   Q
|-10--10-10-10-10-10-10-10-|-10-10-10-10-(10)-----||
|-10--10-10-10-10-10-10-10-|-10-10-10-10-(10)-----||
|--------------------------|----------------------||
|--------------------------|----------------------||
|--------------------------|----------------------||
|--------------------------|----------------------||


 Chorus
  F                       C
  Gtr I
  W          +W           W          +W
|-1--------|-(1)--------|-0--------|-(0)----|
|-1--------|-(1)--------|-1--------|-(1)----|
|-2--------|-(2)--------|-0--------|-(0)----|
|-3--------|-(3)--------|-2--------|-(2)----|
|-3--------|-(3)--------|-3--------|-(3)----|
|-1--------|-(1)--------|----------|--------|


  F#G5    F#G5      F#G5  G7
  E E E E E E E E   E E E E +E   Q   E
|-----------------|-------3-(3)--3---3-|
|-----------------|-------6-(6)--6---6-|
|-----------------|-------4-(4)--4---4-|
|-----------------|-------3-(3)--3---3-|
|-4s5-5-5-4s5-5-5-|-4s5-5-5-(5)--5---5-|
|-2s3-3-3-2s3-3-3-|-2s3-3-3-(3)--3---3-|
|
| Gtr II
|                                ~~~
| W                 H        E   Q.
|-----------------|-------------15-----|
|-----------------|--------------------|
|-----------------|--------------------|
|-----------------|--------------------|
|-----------------|--------------------|
|-----------------|--------------------|


    F#G5      F#G5        F#G5  G7
    E E E E   E E E E     E E E E +E  Q  E
|---------------------|---------3-(3)-3--3--|
|---------------------|---------6-(6)-6--6--|
|---------------------|---------4-(4)-4--4--|
|---------------------|---------3-(3)-3--3--|
|---4s5-5-5---4s5-5-5-|---4s5-5-5-(5)-5--5--|
|---2s3-3-3---2s3-3-3-|---2s3-3-3-(3)-3--3--|
|
| a E E E E a E E E E   a E E E E  H
|-2s3-3-3-3-2s3-3-3-3-|-2s3-3-3-3-----------|
|-2s3-3-3-3-2s3-3-3-3-|-2s3-3-3-3-----------|
|---------------------|---------------------|
|---------------------|---------------------|
|---------------------|---------------------|
|---------------------|---------------------|


  F                       C          Bb
  W          +W           W          W
|-1--------|-(1)--------|-0--------|-1----|
|-1--------|-(1)--------|-1--------|-3----|
|-2--------|-(2)--------|-0--------|-3----|
|-3--------|-(3)--------|-2--------|-3----|
|-3--------|-(3)--------|-3--------|-1----|
|-1--------|-(1)--------|----------|------|


  F#G5    F#G5      F#G5  G7
  E E E E E E E E   E E E E +E   Q   E
|-----------------|-------3-(3)--3---3-|
|-----------------|-------6-(6)--6---6-|
|-----------------|-------4-(4)--4---4-|
|-----------------|-------3-(3)--3---3-|
|-4s5-5-5-4s5-5-5-|-4s5-5-5-(5)--5---5-|
|-2s3-3-3-2s3-3-3-|-2s3-3-3-(3)--3---3-|
|
| Gtr II
|                                ~~~
| W                 H        E   Q.
|-----------------|-------------15-----|
|-----------------|--------------------|
|-----------------|--------------------|
|-----------------|--------------------|
|-----------------|--------------------|
|-----------------|--------------------|


                               D.S. al Coda
    F#G5      F#G5        F#G5  G7
    E E E E   E E E E     E E E E +E  Q  E
|---------------------|---------3-(3)-3--3--||
|---------------------|---------6-(6)-6--6--||
|---------------------|---------4-(4)-4--4--||
|---------------------|---------3-(3)-3--3--||
|---4s5-5-5---4s5-5-5-|---4s5-5-5-(5)-5--5--||
|---2s3-3-3---2s3-3-3-|---2s3-3-3-(3)-3--3--||
|
| a E E E E a E E E E   a E E E E  H
|-2s3-3-3-3-2s3-3-3-3-|-2s3-3-3-3-----------||
|-2s3-3-3-3-2s3-3-3-3-|-2s3-3-3-3-----------||
|---------------------|---------------------||
|---------------------|---------------------||
|---------------------|---------------------||
|---------------------|---------------------||


 Outro
  &
  D7                              G7 G13G7 G13  G7 G1G7
  Q  Q  Q  Q    Q  E E +E  Q.     Q  Q  Q  Q    Q  E E +E  Q.
|-5--5--5--5--|-5--5-5-(5)-5----|-3--3--3--3--|-3--3-3-(3)-3----|
|-7--7--7--7--|-7--7-7-(7)-7----|-6--5--6--5--|-6--5-6-(6)-6----|
|-5--5--5--5--|-5--5-5-(5)-5----|-4--4--4--4--|-4--4-4-(4)-4----|
|-7--7--7--7--|-7--7-7-(7)-7----|-3--3--3--3--|-3--3-3-(3)-3----|
|-5--5--5--5--|-5--5-5-(5)-5----|-5--5--5--5--|-5--5-5-(5)-5----|
|-------------|-----------------|-3--3--3--3--|-3--3-3-(3)-3----|


  D7                              G7 G13G7 G13  G7 G1G7      N.C.
                                                             Gtrs I, II
  Q  Q  Q  Q    Q  E E +E  Q.     Q  Q  Q  Q    Q  E E +Q.   a E
|-5--5--5--5--|-5--5-5-(5)-5----|-3--3--3--3--|-3--3-3-(3)-------|
|-7--7--7--7--|-7--7-7-(7)-7----|-6--5--6--5--|-6--5-6-(6)-------|
|-5--5--5--5--|-5--5-5-(5)-5----|-4--4--4--4--|-4--4-4-(4)-------|
|-7--7--7--7--|-7--7-7-(7)-7----|-3--3--3--3--|-3--3-3-(3)---3s5-|
|-5--5--5--5--|-5--5-5-(5)-5----|-5--5--5--5--|-5--5-5-(5)-------|
|-------------|-----------------|-3--3--3--3--|-3--3-3-(3)-------|


   W                  W
|-------------------|----------------|
|-------------------|----------------|
|-------------------|----------------|
|-------------------|----------------|
|-------------------|----------------|
|-------------------|----------------|
|
| Gtrs I, II                         G
| +E  E E E E E E E   E E E E +H
|-------------------|----------------|
|-------------------|----------------|
|-----0---0---0---0-|---0------------|
|-(5)---3-----------|----------------|
|-----------5---4---|-3---1----------|
|-------------------|-------3-(3)----|


  Freely Q=110
  Bb                           G7+9  G9
                         Gtr I
  W           W             Q   E  E  E  E Q
|----------|-------------|--------------------*|
|----------|-------------|-----11----10-10----*|
|----------|-------------|-----10----10-10----*|
|----------|-------------|------9-----9--9----*|
|----------|-------------|-----10----10-10----*|
|----------|-------------|--------------------*|
|
|tr II
| W           H.      Q     Q   E  E  H
|----------|-------------|--------------------*|
|-3s=======|=15/---------|-12s=15/------------*|
|-3s=======|=15/---------|--------------------*|
|-3s=======|=15/---------|--------------------*|
|----------|-------------|--------------------*|
|----------|-------------|--------------------*|
            
Submit corrections


        Wilbury Twist lessons Hard to play? Try these video lessons and learn fast Wilbury Twist lessons
        
↑ Back to top | Tablatures and chords for acoustic guitar and electric guitar, ukulele, drums are parodies/interpretations of the original songs. You may use it for private study, scholarship, research or language learning purposes only